  0
SECTION
  2
HEADER
  9
$ACADVER
  1
AC1015
  9
$ACADMAINTVER
 70
     6
  9
$DWGCODEPAGE
  3
ANSI_932
  9
$INSBASE
 10
0.0
 20
0.0
 30
0.0
  9
$EXTMIN
 10
0.625
 20
3.375000000000057
 30
0.0
  9
$EXTMAX
 10
263.125
 20
374.6250000000001
 30
0.0
  9
$LIMMIN
 10
0.625
 20
3.375000000000057
  9
$LIMMAX
 10
263.125
 20
374.6250000000001
  9
$ORTHOMODE
 70
     0
  9
$REGENMODE
 70
     1
  9
$FILLMODE
 70
     1
  9
$QTEXTMODE
 70
     0
  9
$MIRRTEXT
 70
     1
  9
$LTSCALE
 40
1.0
  9
$ATTMODE
 70
     1
  9
$TEXTSIZE
 40
0.2
  9
$TRACEWID
 40
0.05
  9
$TEXTSTYLE
  7
Standard
  9
$CLAYER
  8
黒
  9
$CELTYPE
  6
ByLayer
  9
$CECOLOR
 62
   256
  9
$CELTSCALE
 40
1.0
  9
$DISPSILH
 70
     0
  9
$DIMSCALE
 40
1.0
  9
$DIMASZ
 40
0.18
  9
$DIMEXO
 40
0.0625
  9
$DIMDLI
 40
0.38
  9
$DIMRND
 40
0.0
  9
$DIMDLE
 40
0.0
  9
$DIMEXE
 40
0.18
  9
$DIMTP
 40
0.0
  9
$DIMTM
 40
0.0
  9
$DIMTXT
 40
0.18
  9
$DIMCEN
 40
0.09
  9
$DIMTSZ
 40
0.0
  9
$DIMTOL
 70
     0
  9
$DIMLIM
 70
     0
  9
$DIMTIH
 70
     1
  9
$DIMTOH
 70
     1
  9
$DIMSE1
 70
     0
  9
$DIMSE2
 70
     0
  9
$DIMTAD
 70
     0
  9
$DIMZIN
 70
     0
  9
$DIMBLK
  1

  9
$DIMASO
 70
     1
  9
$DIMSHO
 70
     1
  9
$DIMPOST
  1

  9
$DIMAPOST
  1

  9
$DIMALT
 70
     0
  9
$DIMALTD
 70
     2
  9
$DIMALTF
 40
25.4
  9
$DIMLFAC
 40
1.0
  9
$DIMTOFL
 70
     0
  9
$DIMTVP
 40
0.0
  9
$DIMTIX
 70
     0
  9
$DIMSOXD
 70
     0
  9
$DIMSAH
 70
     0
  9
$DIMBLK1
  1

  9
$DIMBLK2
  1

  9
$DIMSTYLE
  2
Standard
  9
$DIMCLRD
 70
     0
  9
$DIMCLRE
 70
     0
  9
$DIMCLRT
 70
     0
  9
$DIMTFAC
 40
1.0
  9
$DIMGAP
 40
0.09
  9
$DIMJUST
 70
     0
  9
$DIMSD1
 70
     0
  9
$DIMSD2
 70
     0
  9
$DIMTOLJ
 70
     1
  9
$DIMTZIN
 70
     0
  9
$DIMALTZ
 70
     0
  9
$DIMALTTZ
 70
     0
  9
$DIMUPT
 70
     0
  9
$DIMDEC
 70
     4
  9
$DIMTDEC
 70
     4
  9
$DIMALTU
 70
     2
  9
$DIMALTTD
 70
     2
  9
$DIMTXSTY
  7
Standard
  9
$DIMAUNIT
 70
     0
  9
$DIMADEC
 70
     0
  9
$DIMALTRND
 40
0.0
  9
$DIMAZIN
 70
     0
  9
$DIMDSEP
 70
    46
  9
$DIMATFIT
 70
     3
  9
$DIMFRAC
 70
     0
  9
$DIMLDRBLK
  1

  9
$DIMLUNIT
 70
     2
  9
$DIMLWD
 70
    -2
  9
$DIMLWE
 70
    -2
  9
$DIMTMOVE
 70
     0
  9
$LUNITS
 70
     2
  9
$LUPREC
 70
     1
  9
$SKETCHINC
 40
0.1
  9
$FILLETRAD
 40
0.5
  9
$AUNITS
 70
     0
  9
$AUPREC
 70
     0
  9
$MENU
  1
.
  9
$ELEVATION
 40
0.0
  9
$PELEVATION
 40
0.0
  9
$THICKNESS
 40
0.0
  9
$LIMCHECK
 70
     0
  9
$CHAMFERA
 40
0.5
  9
$CHAMFERB
 40
0.5
  9
$CHAMFERC
 40
1.0
  9
$CHAMFERD
 40
0.0
  9
$SKPOLY
 70
     0
  9
$TDCREATE
 40
2456092.374022604
  9
$TDUCREATE
 40
2456091.999022604
  9
$TDUPDATE
 40
2456092.374022616
  9
$TDUUPDATE
 40
2456091.999022616
  9
$TDINDWG
 40
0.0000000116
  9
$TDUSRTIMER
 40
0.0000000116
  9
$USRTIMER
 70
     1
  9
$ANGBASE
 50
0.0
  9
$ANGDIR
 70
     0
  9
$PDMODE
 70
     0
  9
$PDSIZE
 40
0.0
  9
$PLINEWID
 40
0.0
  9
$SPLFRAME
 70
     0
  9
$SPLINETYPE
 70
     6
  9
$SPLINESEGS
 70
     8
  9
$HANDSEED
  5
1AB
  9
$SURFTAB1
 70
     6
  9
$SURFTAB2
 70
     6
  9
$SURFTYPE
 70
     6
  9
$SURFU
 70
     6
  9
$SURFV
 70
     6
  9
$UCSBASE
  2

  9
$UCSNAME
  2

  9
$UCSORG
 10
0.0
 20
0.0
 30
0.0
  9
$UCSXDIR
 10
1.0
 20
0.0
 30
0.0
  9
$UCSYDIR
 10
0.0
 20
1.0
 30
0.0
  9
$UCSORTHOREF
  2

  9
$UCSORTHOVIEW
 70
     0
  9
$UCSORGTOP
 10
0.0
 20
0.0
 30
0.0
  9
$UCSORGBOTTOM
 10
0.0
 20
0.0
 30
0.0
  9
$UCSORGLEFT
 10
0.0
 20
0.0
 30
0.0
  9
$UCSORGRIGHT
 10
0.0
 20
0.0
 30
0.0
  9
$UCSORGFRONT
 10
0.0
 20
0.0
 30
0.0
  9
$UCSORGBACK
 10
0.0
 20
0.0
 30
0.0
  9
$PUCSBASE
  2

  9
$PUCSNAME
  2

  9
$PUCSORG
 10
0.0
 20
0.0
 30
0.0
  9
$PUCSXDIR
 10
1.0
 20
0.0
 30
0.0
  9
$PUCSYDIR
 10
0.0
 20
1.0
 30
0.0
  9
$PUCSORTHOREF
  2

  9
$PUCSORTHOVIEW
 70
     0
  9
$PUCSORGTOP
 10
0.0
 20
0.0
 30
0.0
  9
$PUCSORGBOTTOM
 10
0.0
 20
0.0
 30
0.0
  9
$PUCSORGLEFT
 10
0.0
 20
0.0
 30
0.0
  9
$PUCSORGRIGHT
 10
0.0
 20
0.0
 30
0.0
  9
$PUCSORGFRONT
 10
0.0
 20
0.0
 30
0.0
  9
$PUCSORGBACK
 10
0.0
 20
0.0
 30
0.0
  9
$USERI1
 70
     0
  9
$USERI2
 70
     0
  9
$USERI3
 70
     0
  9
$USERI4
 70
     0
  9
$USERI5
 70
     0
  9
$USERR1
 40
0.0
  9
$USERR2
 40
0.0
  9
$USERR3
 40
0.0
  9
$USERR4
 40
0.0
  9
$USERR5
 40
0.0
  9
$WORLDVIEW
 70
     1
  9
$SHADEDGE
 70
     3
  9
$SHADEDIF
 70
    70
  9
$TILEMODE
 70
     1
  9
$MAXACTVP
 70
    64
  9
$PINSBASE
 10
0.0
 20
0.0
 30
0.0
  9
$PLIMCHECK
 70
     0
  9
$PEXTMIN
 10
-9.375
 20
-25.0
 30
0.0
  9
$PEXTMAX
 10
262.5
 20
371.25
 30
0.0
  9
$PLIMMIN
 10
-7.5
 20
-20.0
  9
$PLIMMAX
 10
210.0
 20
297.0
  9
$UNITMODE
 70
     0
  9
$VISRETAIN
 70
     1
  9
$PLINEGEN
 70
     0
  9
$PSLTSCALE
 70
     1
  9
$TREEDEPTH
 70
  3020
  9
$CMLSTYLE
  2
Standard
  9
$CMLJUST
 70
     0
  9
$CMLSCALE
 40
1.0
  9
$PROXYGRAPHICS
 70
     1
  9
$MEASUREMENT
 70
     0
  9
$CELWEIGHT
370
    -1
  9
$ENDCAPS
280
     0
  9
$JOINSTYLE
280
     0
  9
$LWDISPLAY
290
     1
  9
$INSUNITS
 70
     0
  9
$HYPERLINKBASE
  1

  9
$STYLESHEET
  1

  9
$XEDIT
290
     1
  9
$CEPSNTYPE
380
     0
  9
$PSTYLEMODE
290
     1
  9
$FINGERPRINTGUID
  2
{4FDF8E69-4649-4A47-9C64-464976C57D5C}
  9
$VERSIONGUID
  2
{FAEB1C32-E019-11D5-929B-00C0DF256EC4}
  9
$EXTNAMES
290
     1
  9
$PSVPSCALE
 40
0.0
  9
$OLESTARTUP
290
     0
  0
ENDSEC
  0
SECTION
  2
CLASSES
  0
CLASS
  1
ACDBDICTIONARYWDFLT
  2
AcDbDictionaryWithDefault
  3
ObjectDBX Classes
 90
        0
280
     0
281
     0
  0
CLASS
  1
VISUALSTYLE
  2
AcDbVisualStyle
  3
ObjectDBX Classes
 90
     4095
280
     0
281
     0
  0
CLASS
  1
MATERIAL
  2
AcDbMaterial
  3
ObjectDBX Classes
 90
     1153
280
     0
281
     0
  0
CLASS
  1
RASTERVARIABLES
  2
AcDbRasterVariables
  3
ISM
 90
        0
280
     0
281
     0
  0
CLASS
  1
SCALE
  2
AcDbScale
  3
ObjectDBX Classes
 90
     1153
280
     0
281
     0
  0
CLASS
  1
DICTIONARYVAR
  2
AcDbDictionaryVar
  3
ObjectDBX Classes
 90
        0
280
     0
281
     0
  0
CLASS
  1
ACDBPLACEHOLDER
  2
AcDbPlaceHolder
  3
ObjectDBX Classes
 90
        0
280
     0
281
     0
  0
CLASS
  1
LAYOUT
  2
AcDbLayout
  3
ObjectDBX Classes
 90
        0
280
     0
281
     0
  0
ENDSEC
  0
SECTION
  2
TABLES
  0
TABLE
  2
VPORT
  5
8
330
0
100
AcDbSymbolTable
 70
     1
  0
VPORT
  5
29
330
8
100
AcDbSymbolTableRecord
100
AcDbViewportTableRecord
  2
*Active
 70
     0
 10
0.0
 20
0.0
 11
1.0
 21
1.0
 12
105.5
 22
151.2
 13
0.0
 23
0.0
 14
0.5
 24
0.5
 15
0.5
 25
0.5
 16
0.0
 26
0.0
 36
1.0
 17
0.0
 27
0.0
 37
0.0
 40
311.85
 41
0.7070707070707071
 42
50.0
 43
0.0
 44
0.0
 50
0.0
 51
0.0
 71
     0
 72
 20000
 73
     1
 74
     3
 75
     0
 76
     0
 77
     0
 78
     0
281
     0
 65
     1
110
0.0
120
0.0
130
0.0
111
1.0
121
0.0
131
0.0
112
0.0
122
1.0
132
0.0
 79
     0
146
0.0
  0
ENDTAB
  0
TABLE
  2
LTYPE
  5
5
330
0
100
AcDbSymbolTable
 70
     1
  0
LTYPE
  5
14
330
5
100
AcDbSymbolTableRecord
100
AcDbLinetypeTableRecord
  2
ByBlock
 70
     0
  3

 72
    65
 73
     0
 40
0.0
  0
LTYPE
  5
15
330
5
100
AcDbSymbolTableRecord
100
AcDbLinetypeTableRecord
  2
ByLayer
 70
     0
  3

 72
    65
 73
     0
 40
0.0
  0
LTYPE
  5
16
330
5
100
AcDbSymbolTableRecord
100
AcDbLinetypeTableRecord
  2
Continuous
 70
     0
  3
Solid line
 72
    65
 73
     0
 40
0.0
  0
ENDTAB
  0
TABLE
  2
LAYER
  5
2
330
0
100
AcDbSymbolTable
 70
     8
  0
LAYER
  5
10
330
2
100
AcDbSymbolTableRecord
100
AcDbLayerTableRecord
  2
0
 70
     0
 62
     7
  6
Continuous
370
    -3
390
F
  0
LAYER
  5
41
330
2
100
AcDbSymbolTableRecord
100
AcDbLayerTableRecord
  2
枠
 70
     0
 62
     6
  6
Continuous
370
    70
390
F
  0
LAYER
  5
42
330
2
100
AcDbSymbolTableRecord
100
AcDbLayerTableRecord
  2
文字･寸法
 70
     0
 62
     2
  6
Continuous
370
    25
390
F
  0
LAYER
  5
43
330
2
100
AcDbSymbolTableRecord
100
AcDbLayerTableRecord
  2
補助線
 70
     0
 62
     8
  6
Continuous
290
     0
370
    13
390
F
  0
LAYER
  5
44
330
2
100
AcDbSymbolTableRecord
100
AcDbLayerTableRecord
  2
図面枠
 70
     0
 62
     7
  6
Continuous
290
     0
370
    35
390
F
  0
LAYER
  5
45
330
2
100
AcDbSymbolTableRecord
100
AcDbLayerTableRecord
  2
受信機
 70
     0
 62
     3
  6
Continuous
370
    35
390
F
  0
LAYER
  5
46
330
2
100
AcDbSymbolTableRecord
100
AcDbLayerTableRecord
  2
黒
 70
     0
 62
     7
  6
Continuous
370
    25
390
F
  0
LAYER
  5
47
330
2
100
AcDbSymbolTableRecord
100
AcDbLayerTableRecord
  2
rcviewportframe
 70
     0
 62
    -7
  6
Continuous
370
    -3
390
F
  0
ENDTAB
  0
TABLE
  2
STYLE
  5
3
330
0
100
AcDbSymbolTable
 70
     7
  0
STYLE
  5
11
330
3
100
AcDbSymbolTableRecord
100
AcDbTextStyleTableRecord
  2
Standard
 70
     0
 40
0.0
 41
1.0
 50
0.0
 71
     0
 42
0.2
  3
txt.shx
  4
extfont
  0
STYLE
  5
48
330
3
100
AcDbSymbolTableRecord
100
AcDbTextStyleTableRecord
  2
MS PGothic
 70
     0
 40
0.0
 41
1.0
 50
0.0
 71
     0
 42
0.2
  3
MS PGothic.ttf
  4

1001
ACAD
1000
ＭＳ Ｐゴシック
1071
    32818
  0
STYLE
  5
49
330
3
100
AcDbSymbolTableRecord
100
AcDbTextStyleTableRecord
  2
VERTICAL
 70
     4
 40
0.0
 41
1.0
 50
0.0
 71
     0
 42
0.2
  3
txt.shx
  4
extfont
  0
STYLE
  5
4A
330
3
100
AcDbSymbolTableRecord
100
AcDbTextStyleTableRecord
  2
VERTICAL MS PGothic
 70
     0
 40
0.0
 41
1.0
 50
0.0
 71
     0
 42
0.2
  3
MS PGothic.ttf
  4

1001
ACAD
1000
@ＭＳ Ｐゴシック
1071
    32818
  0
STYLE
  5
4C
330
3
100
AcDbSymbolTableRecord
100
AcDbTextStyleTableRecord
  2
MS Gothic B
 70
     0
 40
0.0
 41
1.0
 50
0.0
 71
     0
 42
0.2
  3
MS Gothic.ttf
  4
extfont
1001
ACAD
1000
ＭＳ ゴシック
1071
 33587249
  0
STYLE
  5
70
330
3
100
AcDbSymbolTableRecord
100
AcDbTextStyleTableRecord
  2
MS Gothic
 70
     0
 40
0.0
 41
1.0
 50
0.0
 71
     0
 42
0.2
  3
MS Gothic.ttf
  4
extfont
1001
ACAD
1000
ＭＳ ゴシック
1071
    32817
  0
STYLE
  5
108
330
3
100
AcDbSymbolTableRecord
100
AcDbTextStyleTableRecord
  2
Trebuchet MS B
 70
     0
 40
0.0
 41
1.0
 50
0.0
 71
     0
 42
0.2
  3
trebucbd.ttf
  4
extfont
1001
ACAD
1000
Trebuchet MS
1071
 33554466
  0
ENDTAB
  0
TABLE
  2
VIEW
  5
6
330
0
100
AcDbSymbolTable
 70
     0
  0
ENDTAB
  0
TABLE
  2
UCS
  5
7
330
0
100
AcDbSymbolTable
 70
     0
  0
ENDTAB
  0
TABLE
  2
APPID
  5
9
330
0
100
AcDbSymbolTable
 70
     2
  0
APPID
  5
12
330
9
100
AcDbSymbolTableRecord
100
AcDbRegAppTableRecord
  2
ACAD
 70
     0
  0
APPID
  5
3F
330
9
100
AcDbSymbolTableRecord
100
AcDbRegAppTableRecord
  2
RootPro CAD
 70
     0
  0
ENDTAB
  0
TABLE
  2
DIMSTYLE
  5
A
330
0
100
AcDbSymbolTable
 70
     1
100
AcDbDimStyleTable
  0
DIMSTYLE
105
27
330
A
100
AcDbSymbolTableRecord
100
AcDbDimStyleTableRecord
  2
Standard
 70
     0
340
11
  0
ENDTAB
  0
TABLE
  2
BLOCK_RECORD
  5
1
330
0
100
AcDbSymbolTable
 70
     1
  0
BLOCK_RECORD
  5
1F
330
1
100
AcDbSymbolTableRecord
100
AcDbBlockTableRecord
  2
*Model_Space
340
22
  0
BLOCK_RECORD
  5
1B
330
1
100
AcDbSymbolTableRecord
100
AcDbBlockTableRecord
  2
*Paper_Space
340
1E
  0
ENDTAB
  0
ENDSEC
  0
SECTION
  2
BLOCKS
  0
BLOCK
  5
20
330
1F
100
AcDbEntity
  8
0
100
AcDbBlockBegin
  2
*Model_Space
 70
     0
 10
0.0
 20
0.0
 30
0.0
  3
*Model_Space
  1

  0
ENDBLK
  5
21
330
1F
100
AcDbEntity
  8
0
100
AcDbBlockEnd
  0
BLOCK
  5
1C
330
1B
100
AcDbEntity
 67
     1
  8
0
100
AcDbBlockBegin
  2
*Paper_Space
 70
     0
 10
0.0
 20
0.0
 30
0.0
  3
*Paper_Space
  1

  0
ENDBLK
  5
1D
330
1B
100
AcDbEntity
 67
     1
  8
0
100
AcDbBlockEnd
  0
ENDSEC
  0
SECTION
  2
ENTITIES
  0
LWPOLYLINE
  5
4B
330
1F
100
AcDbEntity
  8
枠
100
AcDbPolyline
 90
        5
 70
     0
 43
0.0
 10
14.20000000000002
 20
16.3
 10
14.20000000000002
 20
278.0
 10
198.8
 20
278.0
 10
198.8
 20
16.3
 10
14.20000000000002
 20
16.3
  0
TEXT
  5
6F
330
1F
100
AcDbEntity
  8
文字･寸法
100
AcDbText
 10
76.95239486694334
 20
284.0323459616155
 30
0.0
 40
9.267647934868942
  1
仕様書
  7
MS Gothic B
 11
76.95239486694334
 21
293.2999938964844
 31
0.0
100
AcDbText
 73
     3
  0
TEXT
  5
71
330
1F
100
AcDbEntity
  8
文字･寸法
100
AcDbText
 10
30.07000114440918
 20
265.115398581294
 30
0.0
 40
5.384601418705955
  1
名称  磁気ループ専用受信機 「充電タイプ」
  7
MS Gothic
 11
30.07000114440918
 21
270.5
 31
0.0
100
AcDbText
 73
     3
  0
TEXT
  5
72
330
1F
100
AcDbEntity
  8
文字･寸法
100
AcDbText
 10
30.0
 20
254.315058950154
 30
0.0
 40
5.384941049845961
  1
品番  ＡＳＴ－０１Ｃ
  7
MS Gothic
 11
30.0
 21
259.7
 31
0.0
100
AcDbText
 73
     3
  0
TEXT
  5
73
330
1F
100
AcDbEntity
  8
文字･寸法
100
AcDbText
 10
24.79999923706055
 20
239.0537258010681
 30
0.0
 40
3.846274198931909
  1
【セット内容】
  7
MS Gothic
 11
24.79999923706055
 21
242.9
 31
0.0
100
AcDbText
 73
     3
  0
TEXT
  5
74
330
1F
100
AcDbEntity
  8
文字･寸法
100
AcDbText
 10
71.0999984741211
 20
239.053661809816
 30
0.0
 40
3.846338190184049
  1
本    体（１）
  7
MS Gothic
 11
71.0999984741211
 21
242.9
 31
0.0
100
AcDbText
 73
     3
  0
TEXT
  5
75
330
1F
100
AcDbEntity
  8
文字･寸法
100
AcDbText
 10
71.39999389648438
 20
231.353655531712
 30
0.0
 40
3.846332261256804
  1
イヤホン（１）
  7
MS Gothic
 11
71.39999389648438
 21
235.1999877929688
 31
0.0
100
AcDbText
 73
     3
  0
TEXT
  5
76
330
1F
100
AcDbEntity
  8
文字･寸法
100
AcDbText
 10
119.3000030517578
 20
231.3537253720112
 30
0.0
 40
3.846262420957543
  1
イヤピース小（予備１）
  7
MS Gothic
 11
119.3000030517578
 21
235.1999877929688
 31
0.0
100
AcDbText
 73
     3
  0
TEXT
  5
77
330
1F
100
AcDbEntity
  8
文字･寸法
100
AcDbText
 10
24.80381965637207
 20
213.4037135940368
 30
0.0
 40
3.846274198931909
  1
【仕      様】
  7
MS Gothic
 11
24.80381965637207
 21
217.2499877929688
 31
0.0
100
AcDbText
 73
     3
  0
TEXT
  5
78
330
1F
100
AcDbEntity
  8
文字･寸法
100
AcDbText
 10
71.40381622314453
 20
213.4033479729609
 30
0.0
 40
3.846639820007826
  1
最大音響利得
  7
MS Gothic
 11
71.40381622314453
 21
217.2499877929688
 31
0.0
100
AcDbText
 73
     3
  0
TEXT
  5
79
330
1F
100
AcDbEntity
  8
文字･寸法
100
AcDbText
 10
71.40381622314453
 20
206.9033892806892
 30
0.0
 40
3.846598512279597
  1
可聴周波数
  7
MS Gothic
 11
71.40381622314453
 21
210.7499877929688
 31
0.0
100
AcDbText
 73
     3
  0
TEXT
  5
7A
330
1F
100
AcDbEntity
  8
文字･寸法
100
AcDbText
 10
71.40381622314453
 20
200.1033362268564
 30
0.0
 40
3.846648514354547
  1
イヤホン
  7
MS Gothic
 11
71.40381622314453
 21
203.949984741211
 31
0.0
100
AcDbText
 73
     3
  0
TEXT
  5
7B
330
1F
100
AcDbEntity
  8
文字･寸法
100
AcDbText
 10
71.40381622314453
 20
193.607319533144
 30
0.0
 40
3.842665208066923
  1
トランジスタ
  7
MS Gothic
 11
71.40381622314453
 21
197.449984741211
 31
0.0
100
AcDbText
 73
     3
  0
TEXT
  5
7C
330
1F
100
AcDbEntity
  8
文字･寸法
100
AcDbText
 10
71.40381622314453
 20
186.6034491049195
 30
0.0
 40
3.846535636291443
  1
電    池
  7
MS Gothic
 11
71.40381622314453
 21
190.449984741211
 31
0.0
100
AcDbText
 73
     3
  0
TEXT
  5
7D
330
1F
100
AcDbEntity
  8
文字･寸法
100
AcDbText
 10
71.40381622314453
 20
166.6030385766085
 30
0.0
 40
3.846946164602477
  1
寸    法
  7
MS Gothic
 11
71.40381622314453
 21
170.449984741211
 31
0.0
100
AcDbText
 73
     3
  0
TEXT
  5
7E
330
1F
100
AcDbEntity
  8
文字･寸法
100
AcDbText
 10
110.803825378418
 20
213.4036506181531
 30
0.0
 40
3.846337174815693
  1
５３ｄＢ（±５ｄＢ）
  7
MS Gothic
 11
110.803825378418
 21
217.2499877929688
 31
0.0
100
AcDbText
 73
     3
  0
TEXT
  5
7F
330
1F
100
AcDbEntity
  8
文字･寸法
100
AcDbText
 10
110.803825378418
 20
206.9036568263936
 30
0.0
 40
3.846330966575122
  1
２００～１０，０００Ｈｚ
  7
MS Gothic
 11
110.803825378418
 21
210.7499877929688
 31
0.0
100
AcDbText
 73
     3
  0
TEXT
  5
80
330
1F
100
AcDbEntity
  8
文字･寸法
100
AcDbText
 10
110.8038215637207
 20
200.1032409472559
 30
0.0
 40
3.84673769043939
  1
１２０Ω
  7
MS Gothic
 11
110.8038215637207
 21
203.9499786376953
 31
0.0
100
AcDbText
 73
     3
  0
TEXT
  5
81
330
1F
100
AcDbEntity
  8
文字･寸法
100
AcDbText
 10
110.803825378418
 20
193.6036321404894
 30
0.0
 40
3.846352600721587
  1
４Ｔｒ 磁気誘導コイル
  7
MS Gothic
 11
110.803825378418
 21
197.449984741211
 31
0.0
100
AcDbText
 73
     3
  0
TEXT
  5
82
330
1F
100
AcDbEntity
  8
文字･寸法
100
AcDbText
 10
110.803825378418
 20
186.6034715317217
 30
0.0
 40
3.846513209489266
  1
ニッケル水素電池
  7
MS Gothic
 11
110.803825378418
 21
190.449984741211
 31
0.0
100
AcDbText
 73
     3
  0
TEXT
  5
83
330
1F
100
AcDbEntity
  8
文字･寸法
100
AcDbText
 10
110.803825378418
 20
166.6036368800326
 30
0.0
 40
3.84634786117837
  1
７５×４５×２０．５
  7
MS Gothic
 11
110.803825378418
 21
170.449984741211
 31
0.0
100
AcDbText
 73
     3
  0
TEXT
  5
84
330
1F
100
AcDbEntity
  8
文字･寸法
100
AcDbText
 10
110.4038238525391
 20
160.2031967046961
 30
0.0
 40
3.846794140030441
  1
７０ｇ
  7
MS Gothic
 11
110.4038238525391
 21
164.0499908447266
 31
0.0
100
AcDbText
 73
     3
  0
TEXT
  5
85
330
1F
100
AcDbEntity
  8
文字･寸法
100
AcDbText
 10
71.40381622314453
 20
160.2034552084351
 30
0.0
 40
3.846535636291443
  1
重    量
  7
MS Gothic
 11
71.40381622314453
 21
164.0499908447266
 31
0.0
100
AcDbText
 73
     3
  0
TEXT
  5
86
330
1F
100
AcDbEntity
  8
文字･寸法
100
AcDbText
 10
25.89999961853027
 20
137.4603831498275
 30
0.0
 40
3.846274198931909
  1
【外  観  図】
  7
MS Gothic
 11
25.89999961853027
 21
141.3066573487594
 31
0.0
100
AcDbText
 73
     3
  0
TEXT
  5
87
330
1F
100
AcDbEntity
  8
文字･寸法
100
AcDbText
 10
160.5000061035156
 20
11.12309934701493
 30
0.0
 40
3.076900652985075
  1
東理システム（株）
  7
MS Gothic
 11
160.5000061035156
 21
14.2
 31
0.0
100
AcDbText
 73
     3
  0
TEXT
  5
88
330
1F
100
AcDbEntity
  8
文字･寸法
100
AcDbText
 10
16.19999885559082
 20
11.50766468859211
 30
0.0
 40
2.692336837286795
  1
今後改良のため、予告なく変更することがあります。
  7
MS Gothic
 11
16.19999885559082
 21
14.20000152587891
 31
0.0
100
AcDbText
 73
     3
  0
TEXT
  5
89
330
1F
100
AcDbEntity
  8
文字･寸法
100
AcDbText
 10
71.40381622314453
 20
179.6036274632341
 30
0.0
 40
3.846357277976901
  1
電池寿命
  7
MS Gothic
 11
71.40381622314453
 21
183.449984741211
 31
0.0
100
AcDbText
 73
     3
  0
TEXT
  5
8A
330
1F
100
AcDbEntity
  8
文字･寸法
100
AcDbText
 10
110.803825378418
 20
179.6037835192953
 30
0.0
 40
3.846201221915649
  1
約８時間 （連続使用）
  7
MS Gothic
 11
110.803825378418
 21
183.449984741211
 31
0.0
100
AcDbText
 73
     3
  0
TEXT
  5
8B
330
1F
100
AcDbEntity
  8
文字･寸法
100
AcDbText
 10
71.40381622314453
 20
172.9034591769961
 30
0.0
 40
3.846528615972642
  1
充電時間
  7
MS Gothic
 11
71.40381622314453
 21
176.7499877929688
 31
0.0
100
AcDbText
 73
     3
  0
TEXT
  5
8C
330
1F
100
AcDbEntity
  8
文字･寸法
100
AcDbText
 10
110.803825378418
 20
172.8037965187469
 30
0.0
 40
3.84618517070628
  1
約３時間以内 （専用充電器使用）
  7
MS Gothic
 11
110.803825378418
 21
176.6499816894531
 31
0.0
100
AcDbText
 73
     3
  0
LWPOLYLINE
  5
8D
330
1F
100
AcDbEntity
  8
文字･寸法
  6
Continuous
100
AcDbPolyline
 90
        3
 70
     0
 43
0.0
 10
54.05847630972392
 20
67.1632231432567
 10
57.0587096182375
 20
66.66462501401266
 10
54.05894358178064
 20
66.1632232524283
  0
LWPOLYLINE
  5
8E
330
1F
100
AcDbEntity
  8
文字･寸法
  6
Continuous
100
AcDbPolyline
 90
        2
 70
     0
 43
0.0
 10
29.75999956331363
 20
66.65186908822689
 10
57.0587096182375
 20
66.66462501401266
  0
CIRCLE
  5
8F
330
1F
100
AcDbEntity
  8
文字･寸法
  6
Continuous
100
AcDbCircle
 10
25.76
 20
66.65
 30
0.0
 40
4.0
  0
TEXT
  5
90
330
1F
100
AcDbEntity
  8
文字･寸法
100
AcDbText
 10
24.3450461796757
 20
64.47314796873185
 30
0.0
 40
4.353704062536303
  1
1
  7
MS Gothic
 72
     1
 11
25.76
 21
66.65
 31
0.0
100
AcDbText
 73
     2
  0
LWPOLYLINE
  5
91
330
1F
100
AcDbEntity
  8
文字･寸法
  6
Continuous
100
AcDbPolyline
 90
        3
 70
     0
 43
0.0
 10
109.7502806981779
 20
120.6417264783732
 10
106.75
 20
121.1400393641599
 10
109.7497183531261
 20
121.6417263202572
  0
LWPOLYLINE
  5
92
330
1F
100
AcDbEntity
  8
文字･寸法
  6
Continuous
100
AcDbPolyline
 90
        2
 70
     0
 43
0.0
 10
118.0175813959889
 20
121.1463756338054
 10
106.75
 20
121.1400393641598
  0
CIRCLE
  5
93
330
1F
100
AcDbEntity
  8
文字･寸法
  6
Continuous
100
AcDbCircle
 10
122.0175807635249
 20
121.1486250140126
 30
0.0
 40
4.0
  0
TEXT
  5
94
330
1F
100
AcDbEntity
  8
文字･寸法
100
AcDbText
 10
120.6007151324804
 20
118.9688317354827
 30
0.0
 40
4.359586557059961
  1
2
  7
MS Gothic
 72
     1
 11
122.0175807635249
 21
121.1486250140126
 31
0.0
100
AcDbText
 73
     2
  0
LWPOLYLINE
  5
95
330
1F
100
AcDbEntity
  8
文字･寸法
  6
Continuous
100
AcDbPolyline
 90
        3
 70
     0
 43
0.0
 10
106.3749017831326
 20
80.9330360693111
 10
103.375
 20
81.43362501401266
 10
106.3750981012449
 20
81.9330360500407
  0
LWPOLYLINE
  5
96
330
1F
100
AcDbEntity
  8
文字･寸法
  6
Continuous
100
AcDbPolyline
 90
        2
 70
     0
 43
0.0
 10
117.8400000770816
 20
81.43078527244903
 10
103.375
 20
81.43362501401266
  0
CIRCLE
  5
97
330
1F
100
AcDbEntity
  8
文字･寸法
  6
Continuous
100
AcDbCircle
 10
121.84
 20
81.43
 30
0.0
 40
4.0
  0
TEXT
  5
98
330
1F
100
AcDbEntity
  8
文字･寸法
100
AcDbText
 10
120.4231343689555
 20
79.25020672147002
 30
0.0
 40
4.359586557059961
  1
3
  7
MS Gothic
 72
     1
 11
121.84
 21
81.43
 31
0.0
100
AcDbText
 73
     2
  0
TEXT
  5
99
330
1F
100
AcDbEntity
  8
文字･寸法
100
AcDbText
 10
77.46000671386719
 20
39.821468401487
 30
0.0
 40
3.078531598513011
  1
1
  7
MS Gothic
 11
77.46000671386719
 21
42.90000000000001
 31
0.0
100
AcDbText
 73
     3
  0
TEXT
  5
9A
330
1F
100
AcDbEntity
  8
文字･寸法
100
AcDbText
 10
77.46000671386719
 20
34.81731141199226
 30
0.0
 40
3.082688588007738
  1
2
  7
MS Gothic
 11
77.46000671386719
 21
37.90000000000001
 31
0.0
100
AcDbText
 73
     3
  0
TEXT
  5
9B
330
1F
100
AcDbEntity
  8
文字･寸法
100
AcDbText
 10
77.46000671386719
 20
29.81731141199227
 30
0.0
 40
3.082688588007737
  1
3
  7
MS Gothic
 11
77.46000671386719
 21
32.90000000000001
 31
0.0
100
AcDbText
 73
     3
  0
TEXT
  5
9C
330
1F
100
AcDbEntity
  8
文字･寸法
100
AcDbText
 10
77.46000671386719
 20
24.81940497335702
 30
0.0
 40
3.080595026642984
  1
4
  7
MS Gothic
 11
77.46000671386719
 21
27.90000000000001
 31
0.0
100
AcDbText
 73
     3
  0
TEXT
  5
9D
330
1F
100
AcDbEntity
  8
文字･寸法
100
AcDbText
 10
83.34002777099609
 20
30.05611908755282
 30
0.0
 40
3.073881980562412
  1
イヤホン用ジャック
  7
MS Gothic
 11
83.34002777099609
 21
33.13000106811523
 31
0.0
100
AcDbText
 73
     3
  0
TEXT
  5
9E
330
1F
100
AcDbEntity
  8
文字･寸法
100
AcDbText
 10
83.13001525878906
 20
35.18303002901217
 30
0.0
 40
3.07697149686673
  1
電源スイッチ及びボリューム
  7
MS Gothic
 11
83.13001525878906
 21
38.26000152587891
 31
0.0
100
AcDbText
 73
     3
  0
TEXT
  5
9F
330
1F
100
AcDbEntity
  8
文字･寸法
100
AcDbText
 10
83.00001525878906
 20
40.00279095828749
 30
0.0
 40
3.077210567591413
  1
音質切替スイッチ
  7
MS Gothic
 11
83.00001525878906
 21
43.08000152587891
 31
0.0
100
AcDbText
 73
     3
  0
TEXT
  5
A0
330
1F
100
AcDbEntity
  8
文字･寸法
100
AcDbText
 10
83.50001525878906
 20
25.04294840609036
 30
0.0
 40
3.077052356849098
  1
充電用端子
  7
MS Gothic
 11
83.50001525878906
 21
28.12000076293945
 31
0.0
100
AcDbText
 73
     3
  0
LWPOLYLINE
  5
A1
330
1F
100
AcDbEntity
  8
文字･寸法
  6
Continuous
100
AcDbPolyline
 90
        3
 70
     0
 43
0.0
 10
176.2902174400411
 20
106.6930286769559
 10
173.4962903817624
 20
105.4913749859873
 10
175.7494688344146
 20
107.5342129287777
  0
LWPOLYLINE
  5
A2
330
1F
100
AcDbEntity
  8
文字･寸法
  6
Continuous
100
AcDbPolyline
 90
        2
 70
     0
 43
0.0
 10
182.6052629927128
 20
111.347005577494
 10
173.4962903817625
 20
105.4913749859873
  0
CIRCLE
  5
A3
330
1F
100
AcDbEntity
  8
文字･寸法
  6
Continuous
100
AcDbCircle
 10
185.97
 20
113.51
 30
0.0
 40
4.0
  0
TEXT
  5
A4
330
1F
100
AcDbEntity
  8
文字･寸法
100
AcDbText
 10
184.5541002388068
 20
111.3316926750874
 30
0.0
 40
4.356614649825155
  1
4
  7
MS Gothic
 72
     1
 11
185.97
 21
113.51
 31
0.0
100
AcDbText
 73
     2
  0
LWPOLYLINE
  5
A5
330
1F
100
AcDbEntity
  8
文字･寸法
  6
Continuous
100
AcDbPolyline
 90
        3
 70
     0
 43
0.0
 10
166.3251283755954
 20
106.020992581606
 10
163.3062903817625
 20
105.6513749859873
 10
166.0420719665389
 20
106.9800958447076
  0
LWPOLYLINE
  5
A6
330
1F
100
AcDbEntity
  8
文字･寸法
  6
Continuous
100
AcDbPolyline
 90
        2
 70
     0
 43
0.0
 10
182.6052629927128
 20
111.347005577494
 10
163.3062903817625
 20
105.6513749859873
  0
LWPOLYLINE
  5
A7
330
1F
100
AcDbEntity
  8
図面枠
  6
Continuous
 62
    30
370
    13
100
AcDbPolyline
 90
        5
 70
     0
 43
0.0
 10
0.5
 20
2.700000000000045
 10
0.5
 20
299.7
 10
210.5
 20
299.7
 10
210.5
 20
2.700000000000045
 10
0.5
 20
2.700000000000045
  0
ARC
  5
A8
330
1F
100
AcDbEntity
  8
受信機
  6
Continuous
 62
     3
100
AcDbCircle
 10
38.83370961823751
 20
120.5836250140126
 30
0.0
 40
6.75
100
AcDbArc
 50
90.0
 51
180.0
  0
ARC
  5
A9
330
1F
100
AcDbEntity
  8
受信機
  6
Continuous
 62
     3
100
AcDbCircle
 10
38.83370961823749
 20
59.83362501401267
 30
0.0
 40
6.75
100
AcDbArc
 50
180.0
 51
270.0
  0
ARC
  5
AA
330
1F
100
AcDbEntity
  8
受信機
  6
Continuous
 62
     3
100
AcDbCircle
 10
69.8837096182375
 20
59.83362501401267
 30
0.0
 40
6.75
100
AcDbArc
 50
270.0
 51
0.0
  0
ARC
  5
AB
330
1F
100
AcDbEntity
  8
受信機
  6
Continuous
 62
     3
100
AcDbCircle
 10
69.8837096182375
 20
120.5836250140126
 30
0.0
 40
6.75
100
AcDbArc
 50
0.0
 51
90.0
  0
LINE
  5
AC
330
1F
100
AcDbEntity
  8
受信機
100
AcDbLine
 10
38.83370961823749
 20
123.2836250140127
 30
0.0
 11
38.83370961823749
 21
89.53362501401266
 31
0.0
  0
LINE
  5
AD
330
1F
100
AcDbEntity
  8
受信機
100
AcDbLine
 10
55.03370961823749
 20
123.2836250140127
 30
0.0
 11
55.03370961823749
 21
89.53362501401266
 31
0.0
  0
LINE
  5
AE
330
1F
100
AcDbEntity
  8
受信機
100
AcDbLine
 10
53.6837096182375
 20
123.2836250140127
 30
0.0
 11
53.6837096182375
 21
89.53362501401266
 31
0.0
  0
LINE
  5
AF
330
1F
100
AcDbEntity
  8
受信機
100
AcDbLine
 10
40.18370961823749
 20
124.6336250140127
 30
0.0
 11
52.33370961823749
 21
124.6336250140127
 31
0.0
  0
LINE
  5
B0
330
1F
100
AcDbEntity
  8
受信機
100
AcDbLine
 10
56.38370961823749
 20
124.6336250140127
 30
0.0
 11
68.5337096182375
 21
124.6336250140127
 31
0.0
  0
LINE
  5
B1
330
1F
100
AcDbEntity
  8
受信機
100
AcDbLine
 10
69.88370961823749
 20
123.2836250140127
 30
0.0
 11
69.88370961823749
 21
89.53362501401266
 31
0.0
  0
LINE
  5
B2
330
1F
100
AcDbEntity
  8
受信機
100
AcDbLine
 10
56.38370961823749
 20
88.18362501401266
 30
0.0
 11
68.5337096182375
 21
88.18362501401266
 31
0.0
  0
LINE
  5
B3
330
1F
100
AcDbEntity
  8
受信機
100
AcDbLine
 10
40.18370961823749
 20
88.18362501401266
 30
0.0
 11
52.33370961823749
 21
88.18362501401266
 31
0.0
  0
ARC
  5
B4
330
1F
100
AcDbEntity
  8
受信機
100
AcDbCircle
 10
40.18370961823749
 20
123.2836250140127
 30
0.0
 40
1.35
100
AcDbArc
 50
90.0
 51
180.0
  0
ARC
  5
B5
330
1F
100
AcDbEntity
  8
受信機
100
AcDbCircle
 10
52.33370961823749
 20
123.2836250140127
 30
0.0
 40
1.35
100
AcDbArc
 50
0.0
 51
90.0
  0
ARC
  5
B6
330
1F
100
AcDbEntity
  8
受信機
100
AcDbCircle
 10
56.38370961823749
 20
123.2836250140127
 30
0.0
 40
1.35
100
AcDbArc
 50
90.0
 51
180.0
  0
ARC
  5
B7
330
1F
100
AcDbEntity
  8
受信機
100
AcDbCircle
 10
68.5337096182375
 20
123.2836250140127
 30
0.0
 40
1.35
100
AcDbArc
 50
0.0
 51
90.0
  0
ARC
  5
B8
330
1F
100
AcDbEntity
  8
受信機
100
AcDbCircle
 10
40.18370961823749
 20
89.53362501401266
 30
0.0
 40
1.35
100
AcDbArc
 50
180.0
 51
270.0
  0
ARC
  5
B9
330
1F
100
AcDbEntity
  8
受信機
100
AcDbCircle
 10
52.33370961823749
 20
89.53362501401266
 30
0.0
 40
1.35
100
AcDbArc
 50
270.0
 51
0.0
  0
ARC
  5
BA
330
1F
100
AcDbEntity
  8
受信機
100
AcDbCircle
 10
56.38370961823749
 20
89.53362501401266
 30
0.0
 40
1.35
100
AcDbArc
 50
180.0
 51
270.0
  0
ARC
  5
BB
330
1F
100
AcDbEntity
  8
受信機
100
AcDbCircle
 10
68.5337096182375
 20
89.53362501401266
 30
0.0
 40
1.35
100
AcDbArc
 50
270.0
 51
0.0
  0
LINE
  5
BC
330
1F
100
AcDbEntity
  8
受信機
  6
Continuous
 62
     3
100
AcDbLine
 10
57.0587096182375
 20
71.63262501401267
 30
0.0
 11
57.0587096182375
 21
64.88262501401267
 31
0.0
  0
LINE
  5
BD
330
1F
100
AcDbEntity
  8
受信機
  6
Continuous
 62
     3
100
AcDbLine
 10
60.4337096182375
 20
64.88262501401267
 30
0.0
 11
60.4337096182375
 21
71.63262501401267
 31
0.0
  0
LINE
  5
BE
330
1F
100
AcDbEntity
  8
受信機
  6
Continuous
 62
     3
100
AcDbLine
 10
60.4337096182375
 20
71.63262501401267
 30
0.0
 11
57.0587096182375
 21
71.63262501401267
 31
0.0
  0
LINE
  5
BF
330
1F
100
AcDbEntity
  8
受信機
370
    18
100
AcDbLine
 10
57.39620961823749
 20
68.01462501401265
 30
0.0
 11
57.39620961823749
 21
65.31462501401266
 31
0.0
  0
LINE
  5
C0
330
1F
100
AcDbEntity
  8
受信機
370
    18
100
AcDbLine
 10
57.39620961823749
 20
65.31462501401266
 30
0.0
 11
60.09620961823749
 21
65.31462501401266
 31
0.0
  0
LINE
  5
C1
330
1F
100
AcDbEntity
  8
受信機
370
    18
100
AcDbLine
 10
60.09620961823749
 20
65.31462501401266
 30
0.0
 11
60.09620961823749
 21
68.01462501401265
 31
0.0
  0
LINE
  5
C2
330
1F
100
AcDbEntity
  8
受信機
370
    18
100
AcDbLine
 10
60.09620961823749
 20
68.01462501401265
 30
0.0
 11
57.39620961823749
 21
68.01462501401265
 31
0.0
  0
LINE
  5
C3
330
1F
100
AcDbEntity
  8
受信機
370
    18
100
AcDbLine
 10
57.7337096182375
 20
67.67712501401266
 30
0.0
 11
59.75870961823749
 21
67.67712501401266
 31
0.0
  0
LINE
  5
C4
330
1F
100
AcDbEntity
  8
受信機
370
    18
100
AcDbLine
 10
57.7337096182375
 20
67.00212501401266
 30
0.0
 11
59.75870961823749
 21
67.00212501401266
 31
0.0
  0
LINE
  5
C5
330
1F
100
AcDbEntity
  8
受信機
370
    18
100
AcDbLine
 10
57.7337096182375
 20
66.32712501401265
 30
0.0
 11
59.75870961823749
 21
66.32712501401265
 31
0.0
  0
LINE
  5
C6
330
1F
100
AcDbEntity
  8
受信機
370
    18
100
AcDbLine
 10
57.7337096182375
 20
65.65212501401267
 30
0.0
 11
59.75870961823749
 21
65.65212501401267
 31
0.0
  0
LINE
  5
C7
330
1F
100
AcDbEntity
  8
受信機
  6
Continuous
 62
     3
100
AcDbLine
 10
57.0587096182375
 20
64.88262501401267
 30
0.0
 11
60.4337096182375
 21
64.88262501401267
 31
0.0
  0
LINE
  5
C8
330
1F
100
AcDbEntity
  8
受信機
100
AcDbLine
 10
95.69968605227074
 20
57.08362501401265
 30
0.0
 11
95.69968605227074
 21
123.3336250140126
 31
0.0
  0
LINE
  5
C9
330
1F
100
AcDbEntity
  8
受信機
100
AcDbLine
 10
112.15
 20
57.08362501401265
 30
0.0
 11
112.15
 21
123.3336250140126
 31
0.0
  0
LINE
  5
CA
330
1F
100
AcDbEntity
  8
受信機
100
AcDbLine
 10
100.6749999999999
 20
116.9352500140127
 30
0.0
 11
107.4249999999999
 21
116.9352500140127
 31
0.0
  0
LINE
  5
CB
330
1F
100
AcDbEntity
  8
受信機
100
AcDbLine
 10
99.32499999999997
 20
84.13362501401267
 30
0.0
 11
99.32499999999997
 21
78.73362501401266
 31
0.0
  0
LINE
  5
CC
330
1F
100
AcDbEntity
  8
受信機
100
AcDbLine
 10
94.34968605227077
 20
123.2952532154006
 30
0.0
 11
94.34968605227077
 21
89.54525321540066
 31
0.0
  0
ARC
  5
CD
330
1F
100
AcDbEntity
  8
受信機
100
AcDbCircle
 10
95.69968605227074
 20
123.2952532154006
 30
0.0
 40
1.35
100
AcDbArc
 50
90.0
 51
180.0
  0
ARC
  5
CE
330
1F
100
AcDbEntity
  8
受信機
100
AcDbCircle
 10
95.69968605227074
 20
89.54525321540066
 30
0.0
 40
1.35
100
AcDbArc
 50
180.0
 51
270.0
  0
LINE
  5
CF
330
1F
100
AcDbEntity
  8
受信機
100
AcDbLine
 10
95.69968605227074
 20
124.6452532154007
 30
0.0
 11
92.32468605227074
 21
124.6452532154007
 31
0.0
  0
LINE
  5
D0
330
1F
100
AcDbEntity
  8
受信機
100
AcDbLine
 10
92.32468605227074
 20
117.8952532154007
 30
0.0
 11
94.34968605227077
 21
117.8952532154007
 31
0.0
  0
LINE
  5
D1
330
1F
100
AcDbEntity
  8
受信機
100
AcDbLine
 10
99.69968605227074
 20
127.3336250140126
 30
0.0
 11
100.6749999999999
 21
127.3336250140126
 31
0.0
  0
LINE
  5
D2
330
1F
100
AcDbEntity
  8
受信機
100
AcDbLine
 10
108.15
 20
127.3336250140126
 30
0.0
 11
107.4249999999999
 21
127.3336250140126
 31
0.0
  0
CIRCLE
  5
D3
330
1F
100
AcDbEntity
  8
受信機
100
AcDbCircle
 10
102.025
 20
81.43362501401266
 30
0.0
 40
2.025
  0
CIRCLE
  5
D4
330
1F
100
AcDbEntity
  8
受信機
100
AcDbCircle
 10
102.025
 20
81.43362501401266
 30
0.0
 40
1.35
  0
ARC
  5
D5
330
1F
100
AcDbEntity
  8
受信機
 62
     3
370
    13
100
AcDbCircle
 10
38.83370961823749
 20
59.83362501401267
 30
0.0
 40
5.4
100
AcDbArc
 50
180.0
 51
270.0
  0
ARC
  5
D6
330
1F
100
AcDbEntity
  8
受信機
 62
     3
370
    13
100
AcDbCircle
 10
69.8837096182375
 20
59.83362501401267
 30
0.0
 40
5.4
100
AcDbArc
 50
270.0
 51
0.0
  0
ARC
  5
D7
330
1F
100
AcDbEntity
  8
受信機
 62
     3
370
    13
100
AcDbCircle
 10
38.83370961823749
 20
120.5836250140126
 30
0.0
 40
5.4
100
AcDbArc
 50
90.0
 51
180.0
  0
ARC
  5
D8
330
1F
100
AcDbEntity
  8
受信機
 62
     3
370
    13
100
AcDbCircle
 10
69.8837096182375
 20
120.5836250140126
 30
0.0
 40
5.4
100
AcDbArc
 50
0.0
 51
90.0
  0
LINE
  5
D9
330
1F
100
AcDbEntity
  8
受信機
370
    13
100
AcDbLine
 10
39.5087096182375
 20
123.2836250140127
 30
0.0
 11
39.5087096182375
 21
89.53362501401266
 31
0.0
  0
LINE
  5
DA
330
1F
100
AcDbEntity
  8
受信機
370
    13
100
AcDbLine
 10
53.00870961823749
 20
123.2836250140127
 30
0.0
 11
53.00870961823749
 21
89.53362501401266
 31
0.0
  0
LINE
  5
DB
330
1F
100
AcDbEntity
  8
受信機
370
    13
100
AcDbLine
 10
40.18370961823749
 20
123.9586250140126
 30
0.0
 11
52.33370961823749
 21
123.9586250140126
 31
0.0
  0
LINE
  5
DC
330
1F
100
AcDbEntity
  8
受信機
370
    13
100
AcDbLine
 10
40.18370961823749
 20
88.85862501401266
 30
0.0
 11
52.33370961823749
 21
88.85862501401266
 31
0.0
  0
LINE
  5
DD
330
1F
100
AcDbEntity
  8
受信機
370
    13
100
AcDbLine
 10
56.38370961823749
 20
88.85862501401266
 30
0.0
 11
68.5337096182375
 21
88.85862501401266
 31
0.0
  0
LINE
  5
DE
330
1F
100
AcDbEntity
  8
受信機
370
    13
100
AcDbLine
 10
55.70870961823749
 20
123.2836250140127
 30
0.0
 11
55.70870961823749
 21
89.53362501401266
 31
0.0
  0
LINE
  5
DF
330
1F
100
AcDbEntity
  8
受信機
370
    13
100
AcDbLine
 10
69.20870961823749
 20
123.2836250140127
 30
0.0
 11
69.20870961823749
 21
89.53362501401266
 31
0.0
  0
LINE
  5
E0
330
1F
100
AcDbEntity
  8
受信機
370
    13
100
AcDbLine
 10
56.38370961823749
 20
123.9586250140126
 30
0.0
 11
68.5337096182375
 21
123.9586250140126
 31
0.0
  0
ARC
  5
E1
330
1F
100
AcDbEntity
  8
受信機
370
    13
100
AcDbCircle
 10
40.18370961823749
 20
123.2836250140127
 30
0.0
 40
0.675
100
AcDbArc
 50
90.0
 51
180.0
  0
ARC
  5
E2
330
1F
100
AcDbEntity
  8
受信機
370
    13
100
AcDbCircle
 10
52.33370961823749
 20
123.2836250140127
 30
0.0
 40
0.675
100
AcDbArc
 50
0.0
 51
90.0
  0
ARC
  5
E3
330
1F
100
AcDbEntity
  8
受信機
370
    13
100
AcDbCircle
 10
56.38370961823749
 20
123.2836250140127
 30
0.0
 40
0.675
100
AcDbArc
 50
90.0
 51
180.0
  0
ARC
  5
E4
330
1F
100
AcDbEntity
  8
受信機
370
    13
100
AcDbCircle
 10
40.18370961823749
 20
89.53362501401266
 30
0.0
 40
0.675
100
AcDbArc
 50
180.0
 51
270.0
  0
ARC
  5
E5
330
1F
100
AcDbEntity
  8
受信機
370
    13
100
AcDbCircle
 10
52.33370961823749
 20
89.53362501401266
 30
0.0
 40
0.675
100
AcDbArc
 50
270.0
 51
0.0
  0
ARC
  5
E6
330
1F
100
AcDbEntity
  8
受信機
370
    13
100
AcDbCircle
 10
56.38370961823749
 20
89.53362501401266
 30
0.0
 40
0.675
100
AcDbArc
 50
180.0
 51
270.0
  0
ARC
  5
E7
330
1F
100
AcDbEntity
  8
受信機
370
    13
100
AcDbCircle
 10
68.5337096182375
 20
89.53362501401266
 30
0.0
 40
0.675
100
AcDbArc
 50
270.0
 51
0.0
  0
ARC
  5
E8
330
1F
100
AcDbEntity
  8
受信機
370
    13
100
AcDbCircle
 10
68.5337096182375
 20
123.2836250140127
 30
0.0
 40
0.675
100
AcDbArc
 50
0.0
 51
90.0
  0
LINE
  5
E9
330
1F
100
AcDbEntity
  8
受信機
 62
     3
370
    18
100
AcDbLine
 10
56.99120961823741
 20
122.2036250140127
 30
0.0
 11
56.99120961823741
 21
105.1936250140127
 31
0.0
  0
LINE
  5
EA
330
1F
100
AcDbEntity
  8
受信機
 62
     3
370
    18
100
AcDbLine
 10
57.80120961823759
 20
122.2036250140127
 30
0.0
 11
57.80120961823759
 21
105.1936250140127
 31
0.0
  0
LINE
  5
EB
330
1F
100
AcDbEntity
  8
受信機
 62
     3
370
    18
100
AcDbLine
 10
59.0162096182374
 20
122.2036250140127
 30
0.0
 11
59.0162096182374
 21
105.1936250140127
 31
0.0
  0
LINE
  5
EC
330
1F
100
AcDbEntity
  8
受信機
 62
     3
370
    18
100
AcDbLine
 10
59.82620961823758
 20
122.2036250140127
 30
0.0
 11
59.82620961823758
 21
105.1936250140127
 31
0.0
  0
LINE
  5
ED
330
1F
100
AcDbEntity
  8
受信機
 62
     3
370
    18
100
AcDbLine
 10
61.0412096182374
 20
122.2036250140127
 30
0.0
 11
61.0412096182374
 21
105.1936250140127
 31
0.0
  0
LINE
  5
EE
330
1F
100
AcDbEntity
  8
受信機
 62
     3
370
    18
100
AcDbLine
 10
61.85120961823759
 20
122.2036250140127
 30
0.0
 11
61.85120961823759
 21
105.1936250140127
 31
0.0
  0
ARC
  5
EF
330
1F
100
AcDbEntity
  8
受信機
 62
     3
370
    18
100
AcDbCircle
 10
57.39620961823749
 20
122.2036250140127
 30
0.0
 40
0.405
100
AcDbArc
 50
0.0
 51
180.0
  0
ARC
  5
F0
330
1F
100
AcDbEntity
  8
受信機
 62
     3
370
    18
100
AcDbCircle
 10
59.4212096182375
 20
122.2036250140127
 30
0.0
 40
0.405
100
AcDbArc
 50
0.0
 51
180.0
  0
ARC
  5
F1
330
1F
100
AcDbEntity
  8
受信機
 62
     3
370
    18
100
AcDbCircle
 10
61.44620961823749
 20
122.2036250140127
 30
0.0
 40
0.405
100
AcDbArc
 50
0.0
 51
180.0
  0
LINE
  5
F2
330
1F
100
AcDbEntity
  8
受信機
 62
     3
370
    18
100
AcDbLine
 10
63.06620961823741
 20
122.2036250140127
 30
0.0
 11
63.06620961823741
 21
105.1936250140127
 31
0.0
  0
LINE
  5
F3
330
1F
100
AcDbEntity
  8
受信機
 62
     3
370
    18
100
AcDbLine
 10
63.87620961823758
 20
122.2036250140127
 30
0.0
 11
63.87620961823758
 21
105.1936250140127
 31
0.0
  0
LINE
  5
F4
330
1F
100
AcDbEntity
  8
受信機
 62
     3
370
    18
100
AcDbLine
 10
65.0912096182374
 20
122.2036250140127
 30
0.0
 11
65.0912096182374
 21
105.1936250140127
 31
0.0
  0
LINE
  5
F5
330
1F
100
AcDbEntity
  8
受信機
 62
     3
370
    18
100
AcDbLine
 10
65.90120961823759
 20
122.2036250140127
 30
0.0
 11
65.90120961823759
 21
105.1936250140127
 31
0.0
  0
LINE
  5
F6
330
1F
100
AcDbEntity
  8
受信機
 62
     3
370
    18
100
AcDbLine
 10
67.1162096182374
 20
122.2036250140127
 30
0.0
 11
67.1162096182374
 21
105.1936250140127
 31
0.0
  0
LINE
  5
F7
330
1F
100
AcDbEntity
  8
受信機
 62
     3
370
    18
100
AcDbLine
 10
67.92620961823759
 20
122.2036250140127
 30
0.0
 11
67.92620961823759
 21
105.1936250140127
 31
0.0
  0
ARC
  5
F8
330
1F
100
AcDbEntity
  8
受信機
 62
     3
370
    18
100
AcDbCircle
 10
63.47120961823749
 20
122.2036250140127
 30
0.0
 40
0.405
100
AcDbArc
 50
0.0
 51
180.0
  0
ARC
  5
F9
330
1F
100
AcDbEntity
  8
受信機
 62
     3
370
    18
100
AcDbCircle
 10
65.4962096182375
 20
122.2036250140127
 30
0.0
 40
0.405
100
AcDbArc
 50
0.0
 51
180.0
  0
ARC
  5
FA
330
1F
100
AcDbEntity
  8
受信機
 62
     3
370
    18
100
AcDbCircle
 10
67.52120961823749
 20
122.2036250140127
 30
0.0
 40
0.405
100
AcDbArc
 50
0.0
 51
180.0
  0
ARC
  5
FB
330
1F
100
AcDbEntity
  8
受信機
 62
     3
370
    18
100
AcDbCircle
 10
57.39620961823749
 20
105.1936250140127
 30
0.0
 40
0.405
100
AcDbArc
 50
180.0
 51
0.0
  0
ARC
  5
FC
330
1F
100
AcDbEntity
  8
受信機
 62
     3
370
    18
100
AcDbCircle
 10
59.4212096182375
 20
105.1936250140127
 30
0.0
 40
0.405
100
AcDbArc
 50
180.0
 51
0.0
  0
ARC
  5
FD
330
1F
100
AcDbEntity
  8
受信機
 62
     3
370
    18
100
AcDbCircle
 10
61.44620961823749
 20
105.1936250140127
 30
0.0
 40
0.405
100
AcDbArc
 50
180.0
 51
0.0
  0
ARC
  5
FE
330
1F
100
AcDbEntity
  8
受信機
 62
     3
370
    18
100
AcDbCircle
 10
63.47120961823749
 20
105.1936250140127
 30
0.0
 40
0.405
100
AcDbArc
 50
180.0
 51
0.0
  0
ARC
  5
FF
330
1F
100
AcDbEntity
  8
受信機
 62
     3
370
    18
100
AcDbCircle
 10
65.4962096182375
 20
105.1936250140127
 30
0.0
 40
0.405
100
AcDbArc
 50
180.0
 51
0.0
  0
ARC
  5
100
330
1F
100
AcDbEntity
  8
受信機
 62
     3
370
    18
100
AcDbCircle
 10
67.52120961823749
 20
105.1936250140127
 30
0.0
 40
0.405
100
AcDbArc
 50
180.0
 51
0.0
  0
LINE
  5
101
330
1F
100
AcDbEntity
  8
受信機
100
AcDbLine
 10
100.6749999999999
 20
126.9556250140127
 30
0.0
 11
101.35
 21
126.9556250140127
 31
0.0
  0
LINE
  5
102
330
1F
100
AcDbEntity
  8
受信機
100
AcDbLine
 10
106.75
 20
126.9556250140127
 30
0.0
 11
107.4249999999999
 21
126.9556250140127
 31
0.0
  0
LINE
  5
103
330
1F
100
AcDbEntity
  8
受信機
100
AcDbLine
 10
99.69968605227074
 20
53.08362501401265
 30
0.0
 11
103.8
 21
53.08362501401265
 31
0.0
  0
LINE
  5
104
330
1F
100
AcDbEntity
  8
受信機
100
AcDbLine
 10
104.3
 20
53.08362501401265
 30
0.0
 11
108.15
 21
53.08362501401265
 31
0.0
  0
TEXT
  5
105
330
1F
100
AcDbEntity
  8
受信機
100
AcDbText
 10
47.14972534179687
 20
74.09063043176766
 30
0.0
 40
1.038466553095633
  1
TONE ADJUSTMENT
 41
0.9999996605042548
  7
MS Gothic
 11
47.14972534179687
 21
75.1290969848633
 31
0.0
100
AcDbText
 73
     3
  0
TEXT
  5
106
330
1F
100
AcDbEntity
  8
受信機
100
AcDbText
 10
62.2764190673828
 20
70.1512959555048
 30
0.0
 40
1.557833377991301
  1
H
 41
1.000000000000004
  7
MS Gothic
 11
62.2764190673828
 21
71.70912933349611
 31
0.0
100
AcDbText
 73
     3
  0
TEXT
  5
107
330
1F
100
AcDbEntity
  8
受信機
100
AcDbText
 10
62.2089370727539
 20
65.36757047248611
 30
0.0
 40
1.558058189623278
  1
L
 41
1.000000000000004
  7
MS Gothic
 11
62.2089370727539
 21
66.92562866210939
 31
0.0
100
AcDbText
 73
     3
  0
TEXT
  5
109
330
1F
100
AcDbEntity
  8
受信機
100
AcDbText
 10
43.50809326171874
 20
57.58941321088248
 30
0.0
 40
4.366778805719096
  1
AST
 41
1.199999329715042
 51
15.0
  7
Trebuchet MS B
 11
43.50809326171874
 21
61.95619201660158
 31
0.0
100
AcDbText
 73
     3
  0
TEXT
  5
10A
330
1F
100
AcDbEntity
  8
受信機
100
AcDbText
 10
55.65125122070312
 20
57.98345550716777
 30
0.0
 40
2.729236753574432
  1
_01
 41
1.199998516396659
 51
10.0
  7
Trebuchet MS B
 11
55.65125122070312
 21
60.7126922607422
 31
0.0
100
AcDbText
 73
     3
  0
HATCH
  5
10B
330
1F
100
AcDbEntity
  8
受信機
 62
     7
100
AcDbHatch
 10
0.0
 20
0.0
 30
0.0
210
0.0
220
0.0
230
1.0
  2
SOLID
 70
     1
 71
     1
 91
        1
 92
        1
 93
        4
 72
     2
 10
57.39620961823749
 20
122.2036250140127
 40
0.405
 50
0.0
 51
180.0
 73
     1
 72
     1
 10
56.99120961823741
 20
122.2036250140127
 11
56.99120961823741
 21
105.1936250140127
 72
     2
 10
57.39620961823749
 20
105.1936250140127
 40
0.405
 50
180.0
 51
360.0
 73
     1
 72
     1
 10
57.80120961823759
 20
105.1936250140127
 11
57.80120961823759
 21
122.2036250140127
 97
        0
 75
     1
 76
     1
 98
        1
 10
0.0
 20
0.0
  0
HATCH
  5
10C
330
1F
100
AcDbEntity
  8
受信機
 62
     7
100
AcDbHatch
 10
0.0
 20
0.0
 30
0.0
210
0.0
220
0.0
230
1.0
  2
SOLID
 70
     1
 71
     1
 91
        1
 92
        1
 93
        4
 72
     2
 10
57.39620961823749
 20
122.2036250140127
 40
0.405
 50
0.0
 51
180.0
 73
     1
 72
     1
 10
56.99120961823741
 20
122.2036250140127
 11
56.99120961823741
 21
105.1936250140127
 72
     2
 10
57.39620961823749
 20
105.1936250140127
 40
0.405
 50
180.0
 51
360.0
 73
     1
 72
     1
 10
57.80120961823759
 20
105.1936250140127
 11
57.80120961823759
 21
122.2036250140127
 97
        0
 75
     1
 76
     1
 98
        1
 10
0.0
 20
0.0
  0
HATCH
  5
10D
330
1F
100
AcDbEntity
  8
受信機
 62
     7
100
AcDbHatch
 10
0.0
 20
0.0
 30
0.0
210
0.0
220
0.0
230
1.0
  2
SOLID
 70
     1
 71
     1
 91
        1
 92
        1
 93
        4
 72
     2
 10
59.4212096182375
 20
105.1936250140127
 40
0.405
 50
180.0
 51
360.0
 73
     1
 72
     1
 10
59.82620961823758
 20
105.1936250140127
 11
59.82620961823758
 21
122.2036250140127
 72
     2
 10
59.4212096182375
 20
122.2036250140127
 40
0.405
 50
0.0
 51
180.0
 73
     1
 72
     1
 10
59.0162096182374
 20
122.2036250140127
 11
59.0162096182374
 21
105.1936250140127
 97
        0
 75
     1
 76
     1
 98
        1
 10
0.0
 20
0.0
  0
HATCH
  5
10E
330
1F
100
AcDbEntity
  8
受信機
 62
     7
100
AcDbHatch
 10
0.0
 20
0.0
 30
0.0
210
0.0
220
0.0
230
1.0
  2
SOLID
 70
     1
 71
     1
 91
        1
 92
        1
 93
        4
 72
     2
 10
61.44620961823749
 20
105.1936250140127
 40
0.405
 50
180.0
 51
360.0
 73
     1
 72
     1
 10
61.85120961823759
 20
105.1936250140127
 11
61.85120961823759
 21
122.2036250140127
 72
     2
 10
61.44620961823749
 20
122.2036250140127
 40
0.405
 50
0.0
 51
180.0
 73
     1
 72
     1
 10
61.0412096182374
 20
122.2036250140127
 11
61.0412096182374
 21
105.1936250140127
 97
        0
 75
     1
 76
     1
 98
        1
 10
0.0
 20
0.0
  0
HATCH
  5
10F
330
1F
100
AcDbEntity
  8
受信機
 62
     7
100
AcDbHatch
 10
0.0
 20
0.0
 30
0.0
210
0.0
220
0.0
230
1.0
  2
SOLID
 70
     1
 71
     1
 91
        1
 92
        1
 93
        4
 72
     2
 10
63.47120961823749
 20
105.1936250140127
 40
0.405
 50
180.0
 51
360.0
 73
     1
 72
     1
 10
63.87620961823758
 20
105.1936250140127
 11
63.87620961823758
 21
122.2036250140127
 72
     2
 10
63.47120961823749
 20
122.2036250140127
 40
0.405
 50
0.0
 51
180.0
 73
     1
 72
     1
 10
63.06620961823741
 20
122.2036250140127
 11
63.06620961823741
 21
105.1936250140127
 97
        0
 75
     1
 76
     1
 98
        1
 10
0.0
 20
0.0
  0
HATCH
  5
110
330
1F
100
AcDbEntity
  8
受信機
 62
     7
100
AcDbHatch
 10
0.0
 20
0.0
 30
0.0
210
0.0
220
0.0
230
1.0
  2
SOLID
 70
     1
 71
     1
 91
        1
 92
        1
 93
        4
 72
     2
 10
65.4962096182375
 20
105.1936250140127
 40
0.405
 50
180.0
 51
360.0
 73
     1
 72
     1
 10
65.90120961823759
 20
105.1936250140127
 11
65.90120961823759
 21
122.2036250140127
 72
     2
 10
65.4962096182375
 20
122.2036250140127
 40
0.405
 50
0.0
 51
180.0
 73
     1
 72
     1
 10
65.0912096182374
 20
122.2036250140127
 11
65.0912096182374
 21
105.1936250140127
 97
        0
 75
     1
 76
     1
 98
        1
 10
0.0
 20
0.0
  0
HATCH
  5
111
330
1F
100
AcDbEntity
  8
受信機
 62
     7
100
AcDbHatch
 10
0.0
 20
0.0
 30
0.0
210
0.0
220
0.0
230
1.0
  2
SOLID
 70
     1
 71
     1
 91
        1
 92
        1
 93
        4
 72
     2
 10
67.52120961823749
 20
105.1936250140127
 40
0.405
 50
180.0
 51
360.0
 73
     1
 72
     1
 10
67.92620961823759
 20
105.1936250140127
 11
67.92620961823759
 21
122.2036250140127
 72
     2
 10
67.52120961823749
 20
122.2036250140127
 40
0.405
 50
0.0
 51
180.0
 73
     1
 72
     1
 10
67.1162096182374
 20
122.2036250140127
 11
67.1162096182374
 21
105.1936250140127
 97
        0
 75
     1
 76
     1
 98
        1
 10
0.0
 20
0.0
  0
HATCH
  5
112
330
1F
100
AcDbEntity
  8
受信機
 62
     7
100
AcDbHatch
 10
0.0
 20
0.0
 30
0.0
210
0.0
220
0.0
230
1.0
  2
SOLID
 70
     1
 71
     1
 91
        1
 92
        1
 93
        1
 72
     2
 10
102.025
 20
81.43362501401266
 40
1.35
 50
0.0
 51
360.0
 73
     1
 97
        0
 75
     1
 76
     1
 98
        1
 10
0.0
 20
0.0
  0
LINE
  5
113
330
1F
100
AcDbEntity
  8
受信機
370
    18
100
AcDbLine
 10
62.77280961823749
 20
69.45012501401266
 30
0.0
 11
62.77280961823749
 21
67.13712501401265
 31
0.0
  0
LINE
  5
114
330
1F
100
AcDbEntity
  8
受信機
370
    13
100
AcDbLine
 10
96.69968605227074
 20
57.08362501401265
 30
0.0
 11
96.69968605227074
 21
123.3336250140126
 31
0.0
  0
LINE
  5
115
330
1F
100
AcDbEntity
  8
受信機
370
    13
100
AcDbLine
 10
111.15
 20
57.08362501401265
 30
0.0
 11
111.15
 21
123.3336250140126
 31
0.0
  0
LINE
  5
116
330
1F
100
AcDbEntity
  8
受信機
370
    13
100
AcDbLine
 10
99.69968605227074
 20
126.3336250140126
 30
0.0
 11
100.6749999999999
 21
126.3336250140126
 31
0.0
  0
LINE
  5
117
330
1F
100
AcDbEntity
  8
受信機
370
    13
100
AcDbLine
 10
108.15
 20
126.3336250140126
 30
0.0
 11
107.4249999999999
 21
126.3336250140126
 31
0.0
  0
LINE
  5
118
330
1F
100
AcDbEntity
  8
受信機
370
    13
100
AcDbLine
 10
99.69968605227074
 20
54.08362501401265
 30
0.0
 11
103.8
 21
54.08362501401265
 31
0.0
  0
LINE
  5
119
330
1F
100
AcDbEntity
  8
受信機
370
    13
100
AcDbLine
 10
104.3
 20
54.08362501401265
 30
0.0
 11
108.15
 21
54.08362501401265
 31
0.0
  0
LINE
  5
11A
330
1F
100
AcDbEntity
  8
受信機
100
AcDbLine
 10
101.35
 20
128.3066604005172
 30
0.0
 11
106.75
 21
128.3066604005172
 31
0.0
  0
LINE
  5
11B
330
1F
100
AcDbEntity
  8
受信機
100
AcDbLine
 10
104.3
 20
53.27667501401261
 30
0.0
 11
104.3
 21
116.9352500140127
 31
0.0
  0
LINE
  5
11C
330
1F
100
AcDbEntity
  8
受信機
100
AcDbLine
 10
103.8
 20
53.27667501401261
 30
0.0
 11
104.3
 21
53.27667501401261
 31
0.0
  0
LINE
  5
11D
330
1F
100
AcDbEntity
  8
受信機
100
AcDbLine
 10
103.8
 20
53.08362501401265
 30
0.0
 11
103.8
 21
53.27667501401261
 31
0.0
  0
LINE
  5
11E
330
1F
100
AcDbEntity
  8
受信機
100
AcDbLine
 10
104.3
 20
53.27667501401261
 30
0.0
 11
104.3
 21
53.08362501401265
 31
0.0
  0
LINE
  5
11F
330
1F
100
AcDbEntity
  8
受信機
100
AcDbLine
 10
104.3
 20
84.13362501401267
 30
0.0
 11
99.32499999999997
 21
84.13362501401267
 31
0.0
  0
LINE
  5
120
330
1F
100
AcDbEntity
  8
受信機
100
AcDbLine
 10
99.32499999999997
 20
78.73362501401266
 30
0.0
 11
104.3
 21
78.73362501401266
 31
0.0
  0
LINE
  5
121
330
1F
100
AcDbEntity
  8
受信機
100
AcDbLine
 10
103.8
 20
53.27667501401261
 30
0.0
 11
103.8
 21
78.73362501401266
 31
0.0
  0
LINE
  5
122
330
1F
100
AcDbEntity
  8
受信機
100
AcDbLine
 10
103.8
 20
84.13362501401267
 30
0.0
 11
103.8
 21
116.9352500140127
 31
0.0
  0
LINE
  5
123
330
1F
100
AcDbEntity
  8
受信機
100
AcDbLine
 10
32.08370961823749
 20
120.5836250140126
 30
0.0
 11
32.08370961823749
 21
59.83362501401267
 31
0.0
  0
LINE
  5
124
330
1F
100
AcDbEntity
  8
受信機
370
    13
100
AcDbLine
 10
33.43370961823749
 20
120.5836250140126
 30
0.0
 11
33.43370961823749
 21
59.83362501401267
 31
0.0
  0
LINE
  5
125
330
1F
100
AcDbEntity
  8
受信機
100
AcDbLine
 10
76.63370961823752
 20
120.5836250140126
 30
0.0
 11
76.63370961823752
 21
59.83362501401267
 31
0.0
  0
LINE
  5
126
330
1F
100
AcDbEntity
  8
受信機
370
    13
100
AcDbLine
 10
75.2837096182375
 20
120.5836250140126
 30
0.0
 11
75.2837096182375
 21
59.83362501401267
 31
0.0
  0
LINE
  5
127
330
1F
100
AcDbEntity
  8
受信機
 62
     3
370
    13
100
AcDbLine
 10
38.83370961823749
 20
54.43362501401266
 30
0.0
 11
69.8837096182375
 21
54.43362501401266
 31
0.0
  0
LINE
  5
128
330
1F
100
AcDbEntity
  8
受信機
  6
Continuous
 62
     3
100
AcDbLine
 10
38.83370961823749
 20
53.08362501401265
 30
0.0
 11
69.8837096182375
 21
53.08362501401265
 31
0.0
  0
LINE
  5
129
330
1F
100
AcDbEntity
  8
受信機
 62
     3
370
    13
100
AcDbLine
 10
38.83370961823749
 20
125.9836250140127
 30
0.0
 11
69.8837096182375
 21
125.9836250140127
 31
0.0
  0
LINE
  5
12A
330
1F
100
AcDbEntity
  8
受信機
  6
Continuous
 62
     3
100
AcDbLine
 10
38.83370961823751
 20
127.3336250140126
 30
0.0
 11
69.8837096182375
 21
127.3336250140126
 31
0.0
  0
LINE
  5
12B
330
1F
100
AcDbEntity
  8
受信機
100
AcDbLine
 10
101.35
 20
128.3066604005172
 30
0.0
 11
101.35
 21
116.9352500140127
 31
0.0
  0
LINE
  5
12C
330
1F
100
AcDbEntity
  8
受信機
100
AcDbLine
 10
100.6749999999999
 20
127.3336250140126
 30
0.0
 11
100.6749999999999
 21
116.9352500140127
 31
0.0
  0
LINE
  5
12D
330
1F
100
AcDbEntity
  8
受信機
100
AcDbLine
 10
107.4249999999999
 20
116.9352500140127
 30
0.0
 11
107.4249999999999
 21
127.3336250140126
 31
0.0
  0
ARC
  5
12E
330
1F
100
AcDbEntity
  8
受信機
100
AcDbCircle
 10
92.27757173172215
 20
123.2960755989249
 30
0.0
 40
1.35
100
AcDbArc
 50
92.0
 51
182.0
  0
ARC
  5
12F
330
1F
100
AcDbEntity
  8
受信機
100
AcDbCircle
 10
92.80515291081086
 20
88.84687419244624
 30
0.0
 40
0.675
100
AcDbArc
 50
182.0
 51
2.0
  0
LINE
  5
130
330
1F
100
AcDbEntity
  8
受信機
100
AcDbLine
 10
90.92839411524635
 20
123.2489612783765
 30
0.0
 11
92.13056410257302
 21
88.82331703217206
 31
0.0
  0
LINE
  5
131
330
1F
100
AcDbEntity
  8
受信機
100
AcDbLine
 10
93.47974171904876
 20
88.87043135272043
 30
0.0
 11
92.32468605227051
 21
121.9468979824491
 31
0.0
  0
ARC
  5
132
330
1F
100
AcDbEntity
  8
受信機
100
AcDbCircle
 10
91.08541662377972
 20
93.99562094036015
 30
0.0
 40
4.238999999999982
100
AcDbArc
 50
303.2748054823169
 51
320.358961185285
  0
ARC
  5
133
330
1F
100
AcDbEntity
  8
受信機
100
AcDbCircle
 10
91.08541662377972
 20
93.99562094036015
 30
0.0
 40
4.238999999999982
100
AcDbArc
 50
39.64103881471498
 51
60.44041392866757
  0
ARC
  5
134
330
1F
100
AcDbEntity
  8
受信機
370
    13
100
AcDbCircle
 10
99.69968605227074
 20
57.08362501401265
 30
0.0
 40
3.0
100
AcDbArc
 50
180.0
 51
270.0
  0
ARC
  5
135
330
1F
100
AcDbEntity
  8
受信機
370
    13
100
AcDbCircle
 10
108.15
 20
57.08362501401265
 30
0.0
 40
3.0
100
AcDbArc
 50
270.0
 51
0.0
  0
ARC
  5
136
330
1F
100
AcDbEntity
  8
受信機
370
    13
100
AcDbCircle
 10
99.69968605227074
 20
123.3336250140126
 30
0.0
 40
3.0
100
AcDbArc
 50
90.0
 51
180.0
  0
ARC
  5
137
330
1F
100
AcDbEntity
  8
受信機
370
    13
100
AcDbCircle
 10
108.15
 20
123.3336250140126
 30
0.0
 40
3.0
100
AcDbArc
 50
0.0
 51
90.0
  0
ARC
  5
138
330
1F
100
AcDbEntity
  8
受信機
100
AcDbCircle
 10
99.69968605227074
 20
57.08362501401265
 30
0.0
 40
4.0
100
AcDbArc
 50
180.0
 51
270.0
  0
ARC
  5
139
330
1F
100
AcDbEntity
  8
受信機
100
AcDbCircle
 10
108.15
 20
57.08362501401265
 30
0.0
 40
4.0
100
AcDbArc
 50
270.0
 51
0.0
  0
ARC
  5
13A
330
1F
100
AcDbEntity
  8
受信機
100
AcDbCircle
 10
108.15
 20
123.3336250140126
 30
0.0
 40
4.0
100
AcDbArc
 50
0.0
 51
90.0
  0
ARC
  5
13B
330
1F
100
AcDbEntity
  8
受信機
100
AcDbCircle
 10
99.69968605227074
 20
123.3336250140126
 30
0.0
 40
4.0
100
AcDbArc
 50
90.0
 51
180.0
  0
LINE
  5
13C
330
1F
100
AcDbEntity
  8
受信機
100
AcDbLine
 10
106.75
 20
116.9352500140127
 30
0.0
 11
106.75
 21
128.3066604005172
 31
0.0
  0
ARC
  5
13D
330
1F
100
AcDbEntity
  8
受信機
100
AcDbCircle
 10
69.80794059972158
 20
120.5878963993463
 30
0.0
 40
7.723035386504576
100
AcDbArc
 50
332.106592783596
 51
119.1372783330242
  0
LINE
  5
13E
330
1F
100
AcDbEntity
  8
受信機
370
    18
100
AcDbLine
 10
95.69968605227074
 20
68.01462501401267
 30
0.0
 11
95.2996860522707
 21
68.01462501401267
 31
0.0
  0
LINE
  5
13F
330
1F
100
AcDbEntity
  8
受信機
370
    18
100
AcDbLine
 10
95.2996860522707
 20
68.01462501401267
 30
0.0
 11
94.99968605227075
 21
67.67712501401266
 31
0.0
  0
LINE
  5
140
330
1F
100
AcDbEntity
  8
受信機
370
    18
100
AcDbLine
 10
94.99968605227075
 20
67.67712501401266
 30
0.0
 11
95.2996860522707
 21
67.33962501401267
 31
0.0
  0
LINE
  5
141
330
1F
100
AcDbEntity
  8
受信機
370
    18
100
AcDbLine
 10
95.2996860522707
 20
67.33962501401267
 30
0.0
 11
94.99968605227075
 21
67.00212501401266
 31
0.0
  0
LINE
  5
142
330
1F
100
AcDbEntity
  8
受信機
370
    18
100
AcDbLine
 10
94.99968605227075
 20
67.00212501401266
 30
0.0
 11
95.2996860522707
 21
66.66462501401266
 31
0.0
  0
LINE
  5
143
330
1F
100
AcDbEntity
  8
受信機
370
    18
100
AcDbLine
 10
95.2996860522707
 20
66.66462501401266
 30
0.0
 11
94.99968605227075
 21
66.32712501401267
 31
0.0
  0
LINE
  5
144
330
1F
100
AcDbEntity
  8
受信機
370
    18
100
AcDbLine
 10
94.99968605227075
 20
66.32712501401267
 30
0.0
 11
95.2996860522707
 21
65.98962501401267
 31
0.0
  0
LINE
  5
145
330
1F
100
AcDbEntity
  8
受信機
370
    18
100
AcDbLine
 10
95.2996860522707
 20
65.98962501401267
 30
0.0
 11
94.99968605227075
 21
65.67862501401265
 31
0.0
  0
LINE
  5
146
330
1F
100
AcDbEntity
  8
受信機
370
    18
100
AcDbLine
 10
94.99968605227075
 20
65.67862501401265
 30
0.0
 11
95.2996860522707
 21
65.31462501401266
 31
0.0
  0
LINE
  5
147
330
1F
100
AcDbEntity
  8
受信機
370
    18
100
AcDbLine
 10
95.2996860522707
 20
65.31462501401266
 30
0.0
 11
95.69968605227074
 21
65.31462501401266
 31
0.0
  0
LWPOLYLINE
  5
148
330
1F
100
AcDbEntity
  8
受信機
100
AcDbPolyline
 90
        5
 70
     0
 43
0.0
 10
76.63370961823752
 20
80.08362501401267
 10
76.63370961823752
 20
82.78362501401267
 10
77.63370961823752
 20
82.78362501401267
 10
77.63370961823752
 20
80.08362501401267
 10
76.63370961823752
 20
80.08362501401267
  0
LINE
  5
149
330
1F
100
AcDbEntity
  8
受信機
100
AcDbLine
 10
170.9500000000001
 20
127.0999999999996
 30
0.0
 11
140.6499999999999
 21
127.0999999999996
 31
0.0
  0
ARC
  5
14A
330
1F
100
AcDbEntity
  8
受信機
100
AcDbCircle
 10
140.6499999999999
 20
120.0999999999996
 30
0.0
 40
7.0
100
AcDbArc
 50
90.0
 51
180.0
  0
LINE
  5
14B
330
1F
100
AcDbEntity
  8
受信機
100
AcDbLine
 10
133.6499999999999
 20
120.0999999999996
 30
0.0
 11
133.6499999999999
 21
59.6999999999996
 31
0.0
  0
LINE
  5
14C
330
1F
100
AcDbEntity
  8
受信機
100
AcDbLine
 10
159.7500000000003
 20
59.6999999999996
 30
0.0
 11
177.9500000000001
 21
59.6999999999996
 31
0.0
  0
LINE
  5
14D
330
1F
100
AcDbEntity
  8
受信機
100
AcDbLine
 10
140.6499999999999
 20
52.6999999999996
 30
0.0
 11
170.9500000000001
 21
52.6999999999996
 31
0.0
  0
LINE
  5
14E
330
1F
100
AcDbEntity
  8
受信機
100
AcDbLine
 10
159.7500000000003
 20
115.6999999999996
 30
0.0
 11
177.9500000000001
 21
115.6999999999996
 31
0.0
  0
LINE
  5
14F
330
1F
100
AcDbEntity
  8
受信機
100
AcDbLine
 10
157.7500000000003
 20
61.6999999999996
 30
0.0
 11
157.7500000000003
 21
113.6999999999996
 31
0.0
  0
ARC
  5
150
330
1F
100
AcDbEntity
  8
受信機
100
AcDbCircle
 10
159.7500000000003
 20
113.6999999999996
 30
0.0
 40
2.0
100
AcDbArc
 50
90.0
 51
180.0
  0
LINE
  5
151
330
1F
100
AcDbEntity
  8
受信機
100
AcDbLine
 10
157.7500000000003
 20
79.99999999999956
 30
0.0
 11
157.9500000000001
 21
79.99999999999956
 31
0.0
  0
LINE
  5
152
330
1F
100
AcDbEntity
  8
受信機
100
AcDbLine
 10
157.7500000000003
 20
94.99999999999956
 30
0.0
 11
157.9500000000001
 21
94.99999999999956
 31
0.0
  0
ARC
  5
153
330
1F
100
AcDbEntity
  8
受信機
100
AcDbCircle
 10
140.6499999999999
 20
59.6999999999996
 30
0.0
 40
7.0
100
AcDbArc
 50
180.0
 51
270.0
  0
ARC
  5
154
330
1F
100
AcDbEntity
  8
受信機
100
AcDbCircle
 10
170.9500000000001
 20
59.6999999999996
 30
0.0
 40
7.0
100
AcDbArc
 50
270.0
 51
0.0
  0
LINE
  5
155
330
1F
100
AcDbEntity
  8
受信機
100
AcDbLine
 10
177.9500000000001
 20
59.6999999999996
 30
0.0
 11
177.9500000000001
 21
120.0999999999996
 31
0.0
  0
ARC
  5
156
330
1F
100
AcDbEntity
  8
受信機
100
AcDbCircle
 10
170.9500000000001
 20
120.0999999999996
 30
0.0
 40
7.0
100
AcDbArc
 50
0.0
 51
90.0
  0
CIRCLE
  5
157
330
1F
100
AcDbEntity
  8
受信機
100
AcDbCircle
 10
163.9500000000001
 20
121.0999999999996
 30
0.0
 40
2.0
  0
CIRCLE
  5
158
330
1F
100
AcDbEntity
  8
受信機
100
AcDbCircle
 10
163.9500000000001
 20
56.6999999999996
 30
0.0
 40
2.0
  0
CIRCLE
  5
159
330
1F
100
AcDbEntity
  8
受信機
100
AcDbCircle
 10
163.9500000000001
 20
121.0999999999996
 30
0.0
 40
1.0
  0
CIRCLE
  5
15A
330
1F
100
AcDbEntity
  8
受信機
100
AcDbCircle
 10
163.9500000000001
 20
56.6999999999996
 30
0.0
 40
1.0
  0
ARC
  5
15B
330
1F
100
AcDbEntity
  8
受信機
100
AcDbCircle
 10
159.7500000000003
 20
61.6999999999996
 30
0.0
 40
2.0
100
AcDbArc
 50
180.0
 51
270.0
  0
CIRCLE
  5
15C
330
1F
100
AcDbEntity
  8
受信機
100
AcDbCircle
 10
162.4500000000001
 20
104.1999999999996
 30
0.0
 40
1.5
  0
CIRCLE
  5
15D
330
1F
100
AcDbEntity
  8
受信機
100
AcDbCircle
 10
172.4500000000001
 20
104.1999999999996
 30
0.0
 40
1.5
  0
LWPOLYLINE
  5
15E
330
1F
100
AcDbEntity
  8
受信機
100
AcDbPolyline
 90
        5
 70
     0
 43
0.0
 10
160.4500000000001
 20
77.6999999999996
 10
160.4500000000001
 20
97.6999999999996
 10
161.4500000000001
 20
97.6999999999996
 10
161.4500000000001
 20
77.6999999999996
 10
160.4500000000001
 20
77.6999999999996
  0
LWPOLYLINE
  5
15F
330
1F
100
AcDbEntity
  8
受信機
100
AcDbPolyline
 90
        5
 70
     0
 43
0.0
 10
162.4500000000001
 20
77.6999999999996
 10
162.4500000000001
 20
97.6999999999996
 10
163.4500000000001
 20
97.6999999999996
 10
163.4500000000001
 20
77.6999999999996
 10
162.4500000000001
 20
77.6999999999996
  0
LWPOLYLINE
  5
160
330
1F
100
AcDbEntity
  8
受信機
100
AcDbPolyline
 90
        5
 70
     0
 43
0.0
 10
166.4500000000001
 20
77.6999999999996
 10
166.4500000000001
 20
97.6999999999996
 10
167.4500000000001
 20
97.6999999999996
 10
167.4500000000001
 20
77.6999999999996
 10
166.4500000000001
 20
77.6999999999996
  0
LWPOLYLINE
  5
161
330
1F
100
AcDbEntity
  8
受信機
100
AcDbPolyline
 90
        5
 70
     0
 43
0.0
 10
164.4500000000001
 20
77.6999999999996
 10
164.4500000000001
 20
97.6999999999996
 10
165.4500000000001
 20
97.6999999999996
 10
165.4500000000001
 20
77.6999999999996
 10
164.4500000000001
 20
77.6999999999996
  0
LWPOLYLINE
  5
162
330
1F
100
AcDbEntity
  8
受信機
100
AcDbPolyline
 90
        5
 70
     0
 43
0.0
 10
168.4500000000001
 20
77.6999999999996
 10
168.4500000000001
 20
97.6999999999996
 10
169.4500000000001
 20
97.6999999999996
 10
169.4500000000001
 20
77.6999999999996
 10
168.4500000000001
 20
77.6999999999996
  0
LWPOLYLINE
  5
163
330
1F
100
AcDbEntity
  8
受信機
100
AcDbPolyline
 90
        5
 70
     0
 43
0.0
 10
170.4500000000001
 20
77.6999999999996
 10
170.4500000000001
 20
97.6999999999996
 10
171.4500000000001
 20
97.6999999999996
 10
171.4500000000001
 20
77.6999999999996
 10
170.4500000000001
 20
77.6999999999996
  0
LINE
  5
164
330
1F
100
AcDbEntity
  8
受信機
100
AcDbLine
 10
157.9500000000001
 20
61.6999999999996
 30
0.0
 11
157.9500000000001
 21
81.9499999999996
 31
0.0
  0
LINE
  5
165
330
1F
100
AcDbEntity
  8
受信機
100
AcDbLine
 10
157.9500000000001
 20
81.9499999999996
 30
0.0
 11
157.9500000000001
 21
113.6999999999996
 31
0.0
  0
LINE
  5
166
330
1F
100
AcDbEntity
  8
受信機
100
AcDbLine
 10
177.9500000000001
 20
59.6999999999996
 30
0.0
 11
159.9500000000001
 21
59.6999999999996
 31
0.0
  0
LINE
  5
167
330
1F
100
AcDbEntity
  8
受信機
100
AcDbLine
 10
177.9500000000001
 20
115.6999999999996
 30
0.0
 11
177.9500000000001
 21
59.6999999999996
 31
0.0
  0
LINE
  5
168
330
1F
100
AcDbEntity
  8
受信機
100
AcDbLine
 10
159.9500000000001
 20
115.6999999999996
 30
0.0
 11
177.9500000000001
 21
115.6999999999996
 31
0.0
  0
ARC
  5
169
330
1F
100
AcDbEntity
  8
受信機
100
AcDbCircle
 10
159.9500000000001
 20
113.6999999999996
 30
0.0
 40
2.0
100
AcDbArc
 50
90.0
 51
180.0
  0
ARC
  5
16A
330
1F
100
AcDbEntity
  8
受信機
100
AcDbCircle
 10
159.9500000000001
 20
61.6999999999996
 30
0.0
 40
2.0
100
AcDbArc
 50
180.0
 51
270.0
  0
LINE
  5
16B
330
1F
100
AcDbEntity
  8
受信機
370
    13
100
AcDbLine
 10
134.9999999999999
 20
120.0999999999996
 30
0.0
 11
134.9999999999999
 21
59.6999999999996
 31
0.0
  0
ARC
  5
16C
330
1F
100
AcDbEntity
  8
受信機
370
    13
100
AcDbCircle
 10
140.6499999999999
 20
120.0999999999996
 30
0.0
 40
5.65
100
AcDbArc
 50
90.0
 51
180.0
  0
LINE
  5
16D
330
1F
100
AcDbEntity
  8
受信機
370
    13
100
AcDbLine
 10
170.9500000000001
 20
125.7499999999996
 30
0.0
 11
140.6499999999999
 21
125.7499999999996
 31
0.0
  0
ARC
  5
16E
330
1F
100
AcDbEntity
  8
受信機
370
    13
100
AcDbCircle
 10
170.9500000000001
 20
120.0999999999996
 30
0.0
 40
5.65
100
AcDbArc
 50
0.0
 51
90.0
  0
LINE
  5
16F
330
1F
100
AcDbEntity
  8
受信機
370
    13
100
AcDbLine
 10
176.6000000000001
 20
115.6999999999996
 30
0.0
 11
176.6000000000001
 21
120.0999999999996
 31
0.0
  0
ARC
  5
170
330
1F
100
AcDbEntity
  8
受信機
370
    13
100
AcDbCircle
 10
170.9500000000001
 20
59.6999999999996
 30
0.0
 40
5.65
100
AcDbArc
 50
270.0
 51
0.0
  0
LINE
  5
171
330
1F
100
AcDbEntity
  8
受信機
370
    13
100
AcDbLine
 10
140.6499999999999
 20
54.04999999999961
 30
0.0
 11
170.9500000000001
 21
54.04999999999961
 31
0.0
  0
ARC
  5
172
330
1F
100
AcDbEntity
  8
受信機
370
    13
100
AcDbCircle
 10
140.6499999999999
 20
59.6999999999996
 30
0.0
 40
5.65
100
AcDbArc
 50
180.0
 51
270.0
  0
LINE
  5
173
330
1F
100
AcDbEntity
  8
受信機
370
    13
100
AcDbLine
 10
176.6000000000001
 20
115.6999999999996
 30
0.0
 11
176.6000000000001
 21
59.6999999999996
 31
0.0
  0
HATCH
  5
174
330
1F
100
AcDbEntity
  8
受信機
 62
     7
100
AcDbHatch
 10
0.0
 20
0.0
 30
0.0
210
0.0
220
0.0
230
1.0
  2
SOLID
 70
     1
 71
     1
 91
        1
 92
        1
 93
        1
 72
     2
 10
162.4500000000001
 20
104.1999999999996
 40
1.5
 50
0.0
 51
360.0
 73
     1
 97
        0
 75
     1
 76
     1
 98
        1
 10
0.0
 20
0.0
  0
HATCH
  5
175
330
1F
100
AcDbEntity
  8
受信機
 62
     7
100
AcDbHatch
 10
0.0
 20
0.0
 30
0.0
210
0.0
220
0.0
230
1.0
  2
SOLID
 70
     1
 71
     1
 91
        1
 92
        1
 93
        1
 72
     2
 10
172.4500000000001
 20
104.1999999999996
 40
1.5
 50
0.0
 51
360.0
 73
     1
 97
        0
 75
     1
 76
     1
 98
        1
 10
0.0
 20
0.0
  0
LWPOLYLINE
  5
176
330
1F
100
AcDbEntity
  8
受信機
100
AcDbPolyline
 90
        5
 70
     0
 43
0.0
 10
132.6499999999999
 20
80.38362501401265
 10
132.6499999999999
 20
83.08362501401265
 10
133.6499999999999
 20
83.08362501401265
 10
133.6499999999999
 20
80.38362501401265
 10
132.6499999999999
 20
80.38362501401265
  0
VIEWPORT
  5
177
330
1B
100
AcDbEntity
 67
     1
  8
0
100
AcDbViewport
 10
0.0
 20
0.0
 30
0.0
 40
219.555
 41
310.5135
 68
     1
 69
     1
 12
105.5
 22
151.2
 13
0.0
 23
0.0
 14
0.5
 24
0.5
 15
0.5
 25
0.5
 16
0.0
 26
0.0
 36
1.0
 17
0.0
 27
0.0
 37
0.0
 42
50.0
 43
0.0
 44
0.0
 45
310.5135
 50
0.0
 51
0.0
 72
   100
 90
   557152
  1

281
     0
 71
     1
 74
     0
110
0.0
120
0.0
130
0.0
111
1.0
121
0.0
131
0.0
112
0.0
122
1.0
132
0.0
 79
     0
146
0.0
  0
POLYLINE
  5
178
102
{ACAD_REACTORS
102
}
330
1B
100
AcDbEntity
 67
     1
  8
rcviewportframe
100
AcDb2dPolyline
 66
     1
 10
0.0
 20
0.0
 30
0.0
 70
     1
  0
VERTEX
  5
179
330
178
100
AcDbEntity
 67
     1
  8
rcviewportframe
100
AcDbVertex
100
AcDb2dVertex
 10
-2.124999999999986
 20
-1.012499999999932
 30
0.0
  0
VERTEX
  5
17A
330
178
100
AcDbEntity
 67
     1
  8
rcviewportframe
100
AcDbVertex
100
AcDb2dVertex
 10
213.125
 20
-1.012499999999932
 30
0.0
  0
VERTEX
  5
17B
330
178
100
AcDbEntity
 67
     1
  8
rcviewportframe
100
AcDbVertex
100
AcDb2dVertex
 10
213.125
 20
303.4125
 30
0.0
  0
VERTEX
  5
17C
330
178
100
AcDbEntity
 67
     1
  8
rcviewportframe
100
AcDbVertex
100
AcDb2dVertex
 10
-2.124999999999986
 20
303.4125
 30
0.0
  0
SEQEND
  5
17D
330
178
100
AcDbEntity
 67
     1
  8
rcviewportframe
  0
VIEWPORT
  5
17E
330
1B
100
AcDbEntity
 67
     1
  8
黒
100
AcDbViewport
 10
105.5
 20
151.2
 30
0.0
 40
215.25
 41
304.425
 68
     2
 69
     2
 12
105.5
 22
151.2
 13
0.0
 23
0.0
 14
0.5
 24
0.5
 15
0.5
 25
0.5
 16
0.0
 26
0.0
 36
1.0
 17
0.0
 27
0.0
 37
0.0
 42
50.0
 43
0.0
 44
0.0
 45
304.425
 50
0.0
 51
0.0
 72
   100
 90
   622688
340
178
  1

281
     0
 71
     1
 74
     0
110
0.0
120
0.0
130
0.0
111
1.0
121
0.0
131
0.0
112
0.0
122
1.0
132
0.0
 79
     0
146
0.0
  0
ENDSEC
  0
SECTION
  2
OBJECTS
  0
DICTIONARY
  5
C
330
0
100
AcDbDictionary
281
     1
  3
ACAD_GROUP
350
D
  3
ACAD_IMAGE_VARS
350
40
  3
ACAD_LAYOUT
350
1A
  3
ACAD_MATERIAL
350
3B
  3
ACAD_MLEADERSTYLE
350
181
  3
ACAD_MLINESTYLE
350
17
  3
ACAD_PLOTSETTINGS
350
19
  3
ACAD_PLOTSTYLENAME
350
E
  3
ACAD_SCALELIST
350
4D
  3
ACAD_VISUALSTYLE
350
2A
  3
AcDbVariableDictionary
350
17F
  0
DICTIONARY
  5
D
102
{ACAD_REACTORS
330
C
102
}
330
C
100
AcDbDictionary
281
     1
  0
RASTERVARIABLES
  5
40
102
{ACAD_REACTORS
330
C
102
}
330
C
100
AcDbRasterVariables
 90
        0
 70
     0
 71
     1
 72
     0
  0
DICTIONARY
  5
1A
102
{ACAD_REACTORS
330
C
102
}
330
C
100
AcDbDictionary
281
     1
  3
Model
350
22
  3
レイアウト
350
1E
  0
DICTIONARY
  5
3B
102
{ACAD_REACTORS
330
C
102
}
330
C
100
AcDbDictionary
281
     1
  3
ByBlock
350
3D
  3
ByLayer
350
3C
  3
Global
350
3E
  0
DICTIONARY
  5
181
102
{ACAD_REACTORS
330
C
102
}
330
C
100
AcDbDictionary
281
     1
  0
DICTIONARY
  5
17
102
{ACAD_REACTORS
330
C
102
}
330
C
100
AcDbDictionary
281
     1
  3
Standard
350
18
  0
DICTIONARY
  5
19
102
{ACAD_REACTORS
330
C
102
}
330
C
100
AcDbDictionary
281
     1
  0
ACDBDICTIONARYWDFLT
  5
E
102
{ACAD_REACTORS
330
C
102
}
330
C
100
AcDbDictionary
281
     1
  3
Normal
350
F
100
AcDbDictionaryWithDefault
340
F
  0
DICTIONARY
  5
4D
102
{ACAD_REACTORS
330
C
102
}
330
C
100
AcDbDictionary
281
     1
  3
A0
350
4E
  3
A1
350
4F
  3
A2
350
50
  3
A3
350
51
  3
A4
350
52
  3
A5
350
53
  3
A6
350
54
  3
A7
350
55
  3
A8
350
56
  3
A9
350
57
  3
B0
350
58
  3
B1
350
59
  3
B2
350
5A
  3
B3
350
5B
  3
B4
350
5C
  3
B5
350
5D
  3
B6
350
5E
  3
B7
350
5F
  3
B8
350
60
  3
B9
350
61
  3
C0
350
62
  3
C1
350
63
  3
C2
350
64
  3
C3
350
65
  3
C4
350
66
  3
C5
350
67
  3
C6
350
68
  3
C7
350
69
  3
C8
350
6A
  3
C9
350
6B
  3
D0
350
6C
  3
D1
350
6D
  3
D2
350
6E
  0
DICTIONARY
  5
2A
102
{ACAD_REACTORS
330
C
102
}
330
C
100
AcDbDictionary
281
     1
  3
2dWireframe
350
2F
  3
3D Hidden
350
31
  3
3dWireframe
350
30
  3
Basic
350
32
  3
Brighten
350
36
  3
ColorChange
350
3A
  3
Conceptual
350
34
  3
Dim
350
35
  3
Facepattern
350
39
  3
Flat
350
2B
  3
FlatWithEdges
350
2C
  3
Gouraud
350
2D
  3
GouraudWithEdges
350
2E
  3
Linepattern
350
38
  3
Realistic
350
33
  3
Thicken
350
37
  0
DICTIONARY
  5
17F
102
{ACAD_REACTORS
330
C
102
}
330
C
100
AcDbDictionary
281
     1
  3
CANNOSCALE
350
182
  3
DIMASSOC
350
183
  3
HIDETEXT
350
184
  0
LAYOUT
  5
22
102
{ACAD_REACTORS
330
1A
102
}
330
1A
100
AcDbPlotSettings
  1

  2
none_device
  4

  6

 40
0.0
 41
0.0
 42
0.0
 43
0.0
 44
0.0
 45
0.0
 46
0.0
 47
0.0
 48
0.0
 49
0.0
140
0.0
141
0.0
142
1.0
143
1.0
 70
  1712
 72
     0
 73
     0
 74
     0
  7

 75
     0
147
1.0
148
0.0
149
0.0
100
AcDbLayout
  1
Model
 70
     1
 71
     0
 10
0.625
 20
3.375000000000057
 11
263.125
 21
374.6250000000001
 12
0.0
 22
0.0
 32
0.0
 14
0.625
 24
3.375000000000057
 34
0.0
 15
263.125
 25
374.6250000000001
 35
0.0
146
0.0
 13
0.0
 23
0.0
 33
0.0
 16
1.0
 26
0.0
 36
0.0
 17
0.0
 27
1.0
 37
0.0
 76
     0
330
1F
331
29
  0
LAYOUT
  5
1E
102
{ACAD_REACTORS
330
1A
102
}
330
1A
100
AcDbPlotSettings
  1

  2
none_device
  4
ISO_A4_(297.00_x_210.00_MM)
  6

 40
7.5
 41
20.0
 42
7.5
 43
20.0
 44
297.0
 45
210.0
 46
-7.5
 47
-20.0
 48
0.0
 49
0.0
140
0.0
141
0.0
142
1.0
143
1.0
 70
   688
 72
     1
 73
     1
 74
     5
  7

 75
    16
147
1.0
148
0.0
149
0.0
100
AcDbLayout
  1
レイアウト
 70
     1
 71
     1
 10
-7.5
 20
-20.0
 11
210.0
 21
297.0
 12
0.0
 22
0.0
 32
0.0
 14
-9.375
 24
-25.0
 34
0.0
 15
262.5
 25
371.25
 35
0.0
146
0.0
 13
0.0
 23
0.0
 33
0.0
 16
1.0
 26
0.0
 36
0.0
 17
0.0
 27
1.0
 37
0.0
 76
     0
330
1B
331
177
  0
MATERIAL
  5
3D
102
{ACAD_REACTORS
330
3B
102
}
102
{ACAD_XDICTIONARY
360
1A7
102
}
330
3B
100
AcDbMaterial
  1
ByBlock
  0
MATERIAL
  5
3C
102
{ACAD_REACTORS
330
3B
102
}
102
{ACAD_XDICTIONARY
360
1A5
102
}
330
3B
100
AcDbMaterial
  1
ByLayer
  0
MATERIAL
  5
3E
102
{ACAD_REACTORS
330
3B
102
}
102
{ACAD_XDICTIONARY
360
1A9
102
}
330
3B
100
AcDbMaterial
  1
Global
  0
MLINESTYLE
  5
18
102
{ACAD_REACTORS
330
17
102
}
330
17
100
AcDbMlineStyle
  2
Standard
 70
     0
  3

 62
   256
 51
90.0
 52
90.0
 71
     2
 49
0.5
 62
   256
  6
BYLAYER
 49
-0.5
 62
   256
  6
BYLAYER
  0
ACDBPLACEHOLDER
  5
F
102
{ACAD_REACTORS
330
E
102
}
330
E
  0
SCALE
  5
4E
102
{ACAD_REACTORS
330
4D
102
}
330
4D
100
AcDbScale
 70
     0
300
1:1
140
1.0
141
1.0
290
     1
  0
SCALE
  5
4F
102
{ACAD_REACTORS
330
4D
102
}
330
4D
100
AcDbScale
 70
     0
300
1:2
140
1.0
141
2.0
290
     0
  0
SCALE
  5
50
102
{ACAD_REACTORS
330
4D
102
}
330
4D
100
AcDbScale
 70
     0
300
1:4
140
1.0
141
4.0
290
     0
  0
SCALE
  5
51
102
{ACAD_REACTORS
330
4D
102
}
330
4D
100
AcDbScale
 70
     0
300
1:5
140
1.0
141
5.0
290
     0
  0
SCALE
  5
52
102
{ACAD_REACTORS
330
4D
102
}
330
4D
100
AcDbScale
 70
     0
300
1:8
140
1.0
141
8.0
290
     0
  0
SCALE
  5
53
102
{ACAD_REACTORS
330
4D
102
}
330
4D
100
AcDbScale
 70
     0
300
1:10
140
1.0
141
10.0
290
     0
  0
SCALE
  5
54
102
{ACAD_REACTORS
330
4D
102
}
330
4D
100
AcDbScale
 70
     0
300
1:16
140
1.0
141
16.0
290
     0
  0
SCALE
  5
55
102
{ACAD_REACTORS
330
4D
102
}
330
4D
100
AcDbScale
 70
     0
300
1:20
140
1.0
141
20.0
290
     0
  0
SCALE
  5
56
102
{ACAD_REACTORS
330
4D
102
}
330
4D
100
AcDbScale
 70
     0
300
1:30
140
1.0
141
30.0
290
     0
  0
SCALE
  5
57
102
{ACAD_REACTORS
330
4D
102
}
330
4D
100
AcDbScale
 70
     0
300
1:40
140
1.0
141
40.0
290
     0
  0
SCALE
  5
58
102
{ACAD_REACTORS
330
4D
102
}
330
4D
100
AcDbScale
 70
     0
300
1:50
140
1.0
141
50.0
290
     0
  0
SCALE
  5
59
102
{ACAD_REACTORS
330
4D
102
}
330
4D
100
AcDbScale
 70
     0
300
1:100
140
1.0
141
100.0
290
     0
  0
SCALE
  5
5A
102
{ACAD_REACTORS
330
4D
102
}
330
4D
100
AcDbScale
 70
     0
300
2:1
140
2.0
141
1.0
290
     0
  0
SCALE
  5
5B
102
{ACAD_REACTORS
330
4D
102
}
330
4D
100
AcDbScale
 70
     0
300
4:1
140
4.0
141
1.0
290
     0
  0
SCALE
  5
5C
102
{ACAD_REACTORS
330
4D
102
}
330
4D
100
AcDbScale
 70
     0
300
8:1
140
8.0
141
1.0
290
     0
  0
SCALE
  5
5D
102
{ACAD_REACTORS
330
4D
102
}
330
4D
100
AcDbScale
 70
     0
300
10:1
140
10.0
141
1.0
290
     0
  0
SCALE
  5
5E
102
{ACAD_REACTORS
330
4D
102
}
330
4D
100
AcDbScale
 70
     0
300
100:1
140
100.0
141
1.0
290
     0
  0
SCALE
  5
5F
102
{ACAD_REACTORS
330
4D
102
}
330
4D
100
AcDbScale
 70
     0
300
1/128" = 1'-0"
140
0.0078125
141
12.0
290
     0
  0
SCALE
  5
60
102
{ACAD_REACTORS
330
4D
102
}
330
4D
100
AcDbScale
 70
     0
300
1/64" = 1'-0"
140
0.015625
141
12.0
290
     0
  0
SCALE
  5
61
102
{ACAD_REACTORS
330
4D
102
}
330
4D
100
AcDbScale
 70
     0
300
1/32" = 1'-0"
140
0.03125
141
12.0
290
     0
  0
SCALE
  5
62
102
{ACAD_REACTORS
330
4D
102
}
330
4D
100
AcDbScale
 70
     0
300
1/16" = 1'-0"
140
0.0625
141
12.0
290
     0
  0
SCALE
  5
63
102
{ACAD_REACTORS
330
4D
102
}
330
4D
100
AcDbScale
 70
     0
300
3/32" = 1'-0"
140
0.09375
141
12.0
290
     0
  0
SCALE
  5
64
102
{ACAD_REACTORS
330
4D
102
}
330
4D
100
AcDbScale
 70
     0
300
1/8" = 1'-0"
140
0.125
141
12.0
290
     0
  0
SCALE
  5
65
102
{ACAD_REACTORS
330
4D
102
}
330
4D
100
AcDbScale
 70
     0
300
3/16" = 1'-0"
140
0.1875
141
12.0
290
     0
  0
SCALE
  5
66
102
{ACAD_REACTORS
330
4D
102
}
330
4D
100
AcDbScale
 70
     0
300
1/4" = 1'-0"
140
0.25
141
12.0
290
     0
  0
SCALE
  5
67
102
{ACAD_REACTORS
330
4D
102
}
330
4D
100
AcDbScale
 70
     0
300
3/8" = 1'-0"
140
0.375
141
12.0
290
     0
  0
SCALE
  5
68
102
{ACAD_REACTORS
330
4D
102
}
330
4D
100
AcDbScale
 70
     0
300
1/2" = 1'-0"
140
0.5
141
12.0
290
     0
  0
SCALE
  5
69
102
{ACAD_REACTORS
330
4D
102
}
330
4D
100
AcDbScale
 70
     0
300
3/4" = 1'-0"
140
0.75
141
12.0
290
     0
  0
SCALE
  5
6A
102
{ACAD_REACTORS
330
4D
102
}
330
4D
100
AcDbScale
 70
     0
300
1" = 1'-0"
140
1.0
141
12.0
290
     0
  0
SCALE
  5
6B
102
{ACAD_REACTORS
330
4D
102
}
330
4D
100
AcDbScale
 70
     0
300
1-1/2" = 1'-0"
140
1.5
141
12.0
290
     0
  0
SCALE
  5
6C
102
{ACAD_REACTORS
330
4D
102
}
330
4D
100
AcDbScale
 70
     0
300
3" = 1'-0"
140
3.0
141
12.0
290
     0
  0
SCALE
  5
6D
102
{ACAD_REACTORS
330
4D
102
}
330
4D
100
AcDbScale
 70
     0
300
6" = 1'-0"
140
6.0
141
12.0
290
     0
  0
SCALE
  5
6E
102
{ACAD_REACTORS
330
4D
102
}
330
4D
100
AcDbScale
 70
     0
300
1'-0" = 1'-0"
140
12.0
141
12.0
290
     0
  0
VISUALSTYLE
  5
2F
102
{ACAD_REACTORS
330
2A
102
}
102
{ACAD_XDICTIONARY
360
18D
102
}
330
2A
100
AcDbVisualStyle
  2
2dWireframe
 70
     4
 71
     0
 72
     2
 73
     0
 90
        0
 40
-0.6
 41
-30.0
 62
     5
 63
     7
 74
     1
 91
        4
 64
     7
 65
   257
 75
     1
175
     1
 42
1.0
 92
        0
 66
   257
 43
1.0
 76
     1
 77
     6
 78
     2
 67
     7
 79
     5
170
     0
171
     0
290
     0
174
     0
 93
        1
 44
0.0
173
     0
291
     0
 45
0.0
1001
ACAD
1000
AcDbSavedByObjectVersion
1070
     0
  0
VISUALSTYLE
  5
31
102
{ACAD_REACTORS
330
2A
102
}
102
{ACAD_XDICTIONARY
360
191
102
}
330
2A
100
AcDbVisualStyle
  2
3D Hidden
 70
     6
 71
     1
 72
     2
 73
     2
 90
        0
 40
-0.6
 41
-30.0
 62
     5
 63
     7
 74
     2
 91
        2
 64
     7
 65
   257
 75
     2
175
     1
 42
40.0
 92
        0
 66
   257
 43
1.0
 76
     1
 77
     6
 78
     2
 67
     7
 79
     3
170
     0
171
     0
290
     0
174
     0
 93
        1
 44
0.0
173
     0
291
     0
 45
0.0
1001
ACAD
1000
AcDbSavedByObjectVersion
1070
     0
  0
VISUALSTYLE
  5
30
102
{ACAD_REACTORS
330
2A
102
}
102
{ACAD_XDICTIONARY
360
18F
102
}
330
2A
100
AcDbVisualStyle
  2
3dWireframe
 70
     5
 71
     0
 72
     2
 73
     0
 90
        0
 40
-0.6
 41
-30.0
 62
     5
 63
     7
 74
     1
 91
        4
 64
     7
 65
   257
 75
     1
175
     1
 42
1.0
 92
        0
 66
   257
 43
1.0
 76
     1
 77
     6
 78
     2
 67
     7
 79
     5
170
     0
171
     0
290
     0
174
     0
 93
        1
 44
0.0
173
     0
291
     0
 45
0.0
1001
ACAD
1000
AcDbSavedByObjectVersion
1070
     0
  0
VISUALSTYLE
  5
32
102
{ACAD_REACTORS
330
2A
102
}
102
{ACAD_XDICTIONARY
360
193
102
}
330
2A
100
AcDbVisualStyle
  2
Basic
 70
     7
 71
     1
 72
     0
 73
     1
 90
        0
 40
-0.6
 41
-30.0
 62
     5
 63
     7
 74
     0
 91
        4
 64
     7
 65
   257
 75
     1
175
     1
 42
1.0
 92
        8
 66
     7
 43
1.0
 76
     1
 77
     6
 78
     2
 67
     7
 79
     5
170
     0
171
     0
290
     0
174
     0
 93
        1
 44
0.0
173
     0
291
     1
 45
0.0
1001
ACAD
1000
AcDbSavedByObjectVersion
1070
     0
  0
VISUALSTYLE
  5
36
102
{ACAD_REACTORS
330
2A
102
}
102
{ACAD_XDICTIONARY
360
19B
102
}
330
2A
100
AcDbVisualStyle
  2
Brighten
 70
    12
 71
     2
 72
     2
 73
     0
 90
        0
 40
-0.6
 41
-30.0
 62
     5
 63
     7
 74
     1
 91
        4
 64
     7
 65
   257
 75
     1
175
     1
 42
1.0
 92
        8
 66
     7
 43
1.0
 76
     1
 77
     6
 78
     2
 67
     7
 79
     5
170
     0
171
     0
290
     0
174
     0
 93
        1
 44
50.0
173
     0
291
     1
 45
0.0
1001
ACAD
1000
AcDbSavedByObjectVersion
1070
     0
  0
VISUALSTYLE
  5
3A
102
{ACAD_REACTORS
330
2A
102
}
102
{ACAD_XDICTIONARY
360
1A3
102
}
330
2A
100
AcDbVisualStyle
  2
ColorChange
 70
    16
 71
     2
 72
     2
 73
     3
 90
        0
 40
-0.6
 41
-30.0
 62
     5
 63
     8
 74
     1
 91
        4
 64
     7
 65
   257
 75
     1
175
     1
 42
1.0
 92
        8
 66
     8
 43
1.0
 76
     1
 77
     6
 78
     2
 67
     7
 79
     5
170
     0
171
     0
290
     0
174
     0
 93
        1
 44
0.0
173
     0
291
     1
 45
0.0
1001
ACAD
1000
AcDbSavedByObjectVersion
1070
     0
  0
VISUALSTYLE
  5
34
102
{ACAD_REACTORS
330
2A
102
}
102
{ACAD_XDICTIONARY
360
197
102
}
330
2A
100
AcDbVisualStyle
  2
Conceptual
 70
     9
 71
     3
 72
     2
 73
     0
 90
        0
 40
-0.6
 41
-30.0
 62
     5
 63
     7
 74
     2
 91
        2
 64
     7
 65
   257
 75
     1
175
     1
 42
40.0
 92
        8
 66
     7
 43
1.0
 76
     1
 77
     6
 78
     2
 67
     7
 79
     3
170
     0
171
     0
290
     0
174
     0
 93
        1
 44
0.0
173
     0
291
     0
 45
0.0
1001
ACAD
1000
AcDbSavedByObjectVersion
1070
     0
  0
VISUALSTYLE
  5
35
102
{ACAD_REACTORS
330
2A
102
}
102
{ACAD_XDICTIONARY
360
199
102
}
330
2A
100
AcDbVisualStyle
  2
Dim
 70
    11
 71
     2
 72
     2
 73
     0
 90
        0
 40
-0.6
 41
-30.0
 62
     5
 63
     7
 74
     1
 91
        4
 64
     7
 65
   257
 75
     1
175
     1
 42
1.0
 92
        8
 66
     7
 43
1.0
 76
     1
 77
     6
 78
     2
 67
     7
 79
     5
170
     0
171
     0
290
     0
174
     0
 93
        1
 44
-50.0
173
     0
291
     1
 45
0.0
1001
ACAD
1000
AcDbSavedByObjectVersion
1070
     0
  0
VISUALSTYLE
  5
39
102
{ACAD_REACTORS
330
2A
102
}
102
{ACAD_XDICTIONARY
360
1A1
102
}
330
2A
100
AcDbVisualStyle
  2
Facepattern
 70
    15
 71
     2
 72
     2
 73
     0
 90
        0
 40
-0.6
 41
-30.0
 62
     5
 63
     7
 74
     1
 91
        4
 64
     7
 65
   257
 75
     1
175
     1
 42
1.0
 92
        8
 66
     7
 43
1.0
 76
     1
 77
     6
 78
     2
 67
     7
 79
     5
170
     0
171
     0
290
     0
174
     0
 93
        1
 44
0.0
173
     0
291
     1
 45
0.0
1001
ACAD
1000
AcDbSavedByObjectVersion
1070
     0
  0
VISUALSTYLE
  5
2B
102
{ACAD_REACTORS
330
2A
102
}
102
{ACAD_XDICTIONARY
360
185
102
}
330
2A
100
AcDbVisualStyle
  2
Flat
 70
     0
 71
     2
 72
     1
 73
     1
 90
        2
 40
-0.6
 41
30.0
 62
     5
 63
     7
 74
     0
 91
        4
 64
     7
 65
   257
 75
     1
175
     1
 42
1.0
 92
        8
 66
     7
 43
1.0
 76
     1
 77
     6
 78
     2
 67
     7
 79
     5
170
     0
171
     0
290
     0
174
     0
 93
       13
 44
0.0
173
     0
291
     1
 45
0.0
1001
ACAD
1000
AcDbSavedByObjectVersion
1070
     0
  0
VISUALSTYLE
  5
2C
102
{ACAD_REACTORS
330
2A
102
}
102
{ACAD_XDICTIONARY
360
187
102
}
330
2A
100
AcDbVisualStyle
  2
FlatWithEdges
 70
     1
 71
     2
 72
     1
 73
     1
 90
        2
 40
-0.6
 41
30.0
 62
     5
 63
     7
 74
     1
 91
        4
 64
     7
 65
   257
 75
     1
175
     1
 42
1.0
 92
        0
 66
   257
 43
1.0
 76
     1
 77
     6
 78
     2
 67
     7
 79
     5
170
     0
171
     0
290
     0
174
     0
 93
       13
 44
0.0
173
     0
291
     1
 45
0.0
1001
ACAD
1000
AcDbSavedByObjectVersion
1070
     0
  0
VISUALSTYLE
  5
2D
102
{ACAD_REACTORS
330
2A
102
}
102
{ACAD_XDICTIONARY
360
189
102
}
330
2A
100
AcDbVisualStyle
  2
Gouraud
 70
     2
 71
     2
 72
     2
 73
     1
 90
        2
 40
-0.6
 41
30.0
 62
     5
 63
     7
 74
     0
 91
        4
 64
     7
 65
   257
 75
     1
175
     1
 42
1.0
 92
        0
 66
     7
 43
1.0
 76
     1
 77
     6
 78
     2
 67
     7
 79
     5
170
     0
171
     0
290
     0
174
     0
 93
       13
 44
0.0
173
     0
291
     1
 45
0.0
1001
ACAD
1000
AcDbSavedByObjectVersion
1070
     0
  0
VISUALSTYLE
  5
2E
102
{ACAD_REACTORS
330
2A
102
}
102
{ACAD_XDICTIONARY
360
18B
102
}
330
2A
100
AcDbVisualStyle
  2
GouraudWithEdges
 70
     3
 71
     2
 72
     2
 73
     1
 90
        2
 40
-0.6
 41
30.0
 62
     5
 63
     7
 74
     1
 91
        4
 64
     7
 65
   257
 75
     1
175
     1
 42
1.0
 92
        0
 66
   257
 43
1.0
 76
     1
 77
     6
 78
     2
 67
     7
 79
     5
170
     0
171
     0
290
     0
174
     0
 93
       13
 44
0.0
173
     0
291
     1
 45
0.0
1001
ACAD
1000
AcDbSavedByObjectVersion
1070
     0
  0
VISUALSTYLE
  5
38
102
{ACAD_REACTORS
330
2A
102
}
102
{ACAD_XDICTIONARY
360
19F
102
}
330
2A
100
AcDbVisualStyle
  2
Linepattern
 70
    14
 71
     2
 72
     2
 73
     0
 90
        0
 40
-0.6
 41
-30.0
 62
     5
 63
     7
 74
     1
 91
        4
 64
     7
 65
   257
 75
     7
175
     7
 42
1.0
 92
        8
 66
     7
 43
1.0
 76
     1
 77
     6
 78
     2
 67
     7
 79
     5
170
     0
171
     0
290
     0
174
     0
 93
        1
 44
0.0
173
     0
291
     1
 45
0.0
1001
ACAD
1000
AcDbSavedByObjectVersion
1070
     0
  0
VISUALSTYLE
  5
33
102
{ACAD_REACTORS
330
2A
102
}
102
{ACAD_XDICTIONARY
360
195
102
}
330
2A
100
AcDbVisualStyle
  2
Realistic
 70
     8
 71
     2
 72
     2
 73
     0
 90
        0
 40
-0.6
 41
-30.0
 62
     5
 63
     7
 74
     1
 91
        0
 64
     7
 65
   257
 75
     1
175
     1
 42
1.0
 92
        8
 66
     8
 43
1.0
 76
     1
 77
     6
 78
     2
 67
     7
 79
     5
170
     0
171
     0
290
     0
174
     0
 93
       13
 44
0.0
173
     0
291
     0
 45
0.0
1001
ACAD
1000
AcDbSavedByObjectVersion
1070
     0
  0
VISUALSTYLE
  5
37
102
{ACAD_REACTORS
330
2A
102
}
102
{ACAD_XDICTIONARY
360
19D
102
}
330
2A
100
AcDbVisualStyle
  2
Thicken
 70
    13
 71
     2
 72
     2
 73
     0
 90
        0
 40
-0.6
 41
-30.0
 62
     5
 63
     7
 74
     1
 91
        4
 64
     7
 65
   257
 75
     1
175
     1
 42
1.0
 92
       12
 66
     7
 43
1.0
 76
     1
 77
     6
 78
     2
 67
     7
 79
     5
170
     0
171
     0
290
     0
174
     0
 93
        1
 44
0.0
173
     0
291
     1
 45
0.0
1001
ACAD
1000
AcDbSavedByObjectVersion
1070
     0
  0
DICTIONARYVAR
  5
182
102
{ACAD_REACTORS
330
17F
102
}
330
17F
100
DictionaryVariables
280
     0
  1
1:1
  0
DICTIONARYVAR
  5
183
102
{ACAD_REACTORS
330
17F
102
}
330
17F
100
DictionaryVariables
280
     0
  1
2
  0
DICTIONARYVAR
  5
184
102
{ACAD_REACTORS
330
17F
102
}
330
17F
100
DictionaryVariables
280
     0
  1
1
  0
DICTIONARY
  5
1A7
330
3D
100
AcDbDictionary
280
     1
281
     1
  3
ACAD_XREC_ROUNDTRIP
360
1A8
  0
DICTIONARY
  5
1A5
330
3C
100
AcDbDictionary
280
     1
281
     1
  3
ACAD_XREC_ROUNDTRIP
360
1A6
  0
DICTIONARY
  5
1A9
330
3E
100
AcDbDictionary
280
     1
281
     1
  3
ACAD_XREC_ROUNDTRIP
360
1AA
  0
DICTIONARY
  5
18D
330
2F
100
AcDbDictionary
280
     1
281
     1
  3
ACAD_XREC_ROUNDTRIP
360
18E
  0
DICTIONARY
  5
191
330
31
100
AcDbDictionary
280
     1
281
     1
  3
ACAD_XREC_ROUNDTRIP
360
192
  0
DICTIONARY
  5
18F
330
30
100
AcDbDictionary
280
     1
281
     1
  3
ACAD_XREC_ROUNDTRIP
360
190
  0
DICTIONARY
  5
193
330
32
100
AcDbDictionary
280
     1
281
     1
  3
ACAD_XREC_ROUNDTRIP
360
194
  0
DICTIONARY
  5
19B
330
36
100
AcDbDictionary
280
     1
281
     1
  3
ACAD_XREC_ROUNDTRIP
360
19C
  0
DICTIONARY
  5
1A3
330
3A
100
AcDbDictionary
280
     1
281
     1
  3
ACAD_XREC_ROUNDTRIP
360
1A4
  0
DICTIONARY
  5
197
330
34
100
AcDbDictionary
280
     1
281
     1
  3
ACAD_XREC_ROUNDTRIP
360
198
  0
DICTIONARY
  5
199
330
35
100
AcDbDictionary
280
     1
281
     1
  3
ACAD_XREC_ROUNDTRIP
360
19A
  0
DICTIONARY
  5
1A1
330
39
100
AcDbDictionary
280
     1
281
     1
  3
ACAD_XREC_ROUNDTRIP
360
1A2
  0
DICTIONARY
  5
185
330
2B
100
AcDbDictionary
280
     1
281
     1
  3
ACAD_XREC_ROUNDTRIP
360
186
  0
DICTIONARY
  5
187
330
2C
100
AcDbDictionary
280
     1
281
     1
  3
ACAD_XREC_ROUNDTRIP
360
188
  0
DICTIONARY
  5
189
330
2D
100
AcDbDictionary
280
     1
281
     1
  3
ACAD_XREC_ROUNDTRIP
360
18A
  0
DICTIONARY
  5
18B
330
2E
100
AcDbDictionary
280
     1
281
     1
  3
ACAD_XREC_ROUNDTRIP
360
18C
  0
DICTIONARY
  5
19F
330
38
100
AcDbDictionary
280
     1
281
     1
  3
ACAD_XREC_ROUNDTRIP
360
1A0
  0
DICTIONARY
  5
195
330
33
100
AcDbDictionary
280
     1
281
     1
  3
ACAD_XREC_ROUNDTRIP
360
196
  0
DICTIONARY
  5
19D
330
37
100
AcDbDictionary
280
     1
281
     1
  3
ACAD_XREC_ROUNDTRIP
360
19E
  0
XRECORD
  5
1A8
102
{ACAD_REACTORS
330
1A7
102
}
330
1A7
100
AcDbXrecord
280
     1
102
MATERIAL
148
0.0
149
0.0
149
0.0
 93
        0
 94
      127
282
     0
 72
     1
 77
     1
171
     1
175
     1
179
     1
273
     0
  0
XRECORD
  5
1A6
102
{ACAD_REACTORS
330
1A5
102
}
330
1A5
100
AcDbXrecord
280
     1
102
MATERIAL
148
0.0
149
0.0
149
0.0
 93
        0
 94
      127
282
     0
 72
     1
 77
     1
171
     1
175
     1
179
     1
273
     0
  0
XRECORD
  5
1AA
102
{ACAD_REACTORS
330
1A9
102
}
330
1A9
100
AcDbXrecord
280
     1
102
MATERIAL
148
0.0
149
0.0
149
0.0
 93
        0
 94
      127
282
     0
 72
     1
 77
     1
171
     1
175
     1
179
     1
273
     0
  0
XRECORD
  5
18E
102
{ACAD_REACTORS
330
18D
102
}
330
18D
100
AcDbXrecord
280
     1
102
RTVSPropertyOp0
 70
     1
102
RTVSPropertyOp1
 70
     1
102
RTVSPropertyOp2
 70
     1
102
RTVSPropertyOp3
 70
     1
102
RTVSPropertyOp4
 70
     1
102
RTVSPropertyOp5
 70
     1
102
RTVSPropertyOp6
 70
     1
102
RTVSPropertyOp7
 70
     1
102
RTVSPropertyOp8
 70
     1
102
RTVSPropertyOp9
 70
     1
102
RTVSPropertyOp10
 70
     1
102
RTVSPropertyOp11
 70
     1
102
RTVSPropertyOp12
 70
     1
102
RTVSPropertyOp13
 70
     1
102
RTVSPropertyOp14
 70
     1
102
RTVSPropertyOp15
 70
     1
102
RTVSPropertyOp16
 70
     1
102
RTVSPropertyOp17
 70
     1
102
RTVSPropertyOp18
 70
     1
102
RTVSPropertyOp19
 70
     1
102
RTVSPropertyOp20
 70
     1
102
RTVSPropertyOp21
 70
     1
102
RTVSPropertyOp22
 70
     1
102
RTVSPropertyOp23
 70
     1
102
RTVSPropertyOp24
 70
     1
102
RTVSPropertyOp25
 70
     1
102
RTVSPropertyOp26
 70
     1
102
RTVSPropertyOp27
 70
     1
  0
XRECORD
  5
192
102
{ACAD_REACTORS
330
191
102
}
330
191
100
AcDbXrecord
280
     1
102
RTVSPropertyOp0
 70
     1
102
RTVSPropertyOp1
 70
     1
102
RTVSPropertyOp2
 70
     1
102
RTVSPropertyOp3
 70
     1
102
RTVSPropertyOp4
 70
     1
102
RTVSPropertyOp5
 70
     1
102
RTVSPropertyOp6
 70
     1
102
RTVSPropertyOp7
 70
     1
102
RTVSPropertyOp8
 70
     1
102
RTVSPropertyOp9
 70
     1
102
RTVSPropertyOp10
 70
     1
102
RTVSPropertyOp11
 70
     1
102
RTVSPropertyOp12
 70
     1
102
RTVSPropertyOp13
 70
     1
102
RTVSPropertyOp14
 70
     1
102
RTVSPropertyOp15
 70
     1
102
RTVSPropertyOp16
 70
     1
102
RTVSPropertyOp17
 70
     1
102
RTVSPropertyOp18
 70
     1
102
RTVSPropertyOp19
 70
     1
102
RTVSPropertyOp20
 70
     1
102
RTVSPropertyOp21
 70
     1
102
RTVSPropertyOp22
 70
     1
102
RTVSPropertyOp23
 70
     1
102
RTVSPropertyOp24
 70
     1
102
RTVSPropertyOp25
 70
     1
102
RTVSPropertyOp26
 70
     1
102
RTVSPropertyOp27
 70
     1
  0
XRECORD
  5
190
102
{ACAD_REACTORS
330
18F
102
}
330
18F
100
AcDbXrecord
280
     1
102
RTVSPropertyOp0
 70
     1
102
RTVSPropertyOp1
 70
     1
102
RTVSPropertyOp2
 70
     1
102
RTVSPropertyOp3
 70
     1
102
RTVSPropertyOp4
 70
     1
102
RTVSPropertyOp5
 70
     1
102
RTVSPropertyOp6
 70
     1
102
RTVSPropertyOp7
 70
     1
102
RTVSPropertyOp8
 70
     1
102
RTVSPropertyOp9
 70
     1
102
RTVSPropertyOp10
 70
     1
102
RTVSPropertyOp11
 70
     1
102
RTVSPropertyOp12
 70
     1
102
RTVSPropertyOp13
 70
     1
102
RTVSPropertyOp14
 70
     1
102
RTVSPropertyOp15
 70
     1
102
RTVSPropertyOp16
 70
     1
102
RTVSPropertyOp17
 70
     1
102
RTVSPropertyOp18
 70
     1
102
RTVSPropertyOp19
 70
     1
102
RTVSPropertyOp20
 70
     1
102
RTVSPropertyOp21
 70
     1
102
RTVSPropertyOp22
 70
     1
102
RTVSPropertyOp23
 70
     1
102
RTVSPropertyOp24
 70
     1
102
RTVSPropertyOp25
 70
     1
102
RTVSPropertyOp26
 70
     1
102
RTVSPropertyOp27
 70
     1
  0
XRECORD
  5
194
102
{ACAD_REACTORS
330
193
102
}
330
193
100
AcDbXrecord
280
     1
102
RTVSPropertyOp0
 70
     1
102
RTVSPropertyOp1
 70
     1
102
RTVSPropertyOp2
 70
     1
102
RTVSPropertyOp3
 70
     1
102
RTVSPropertyOp4
 70
     1
102
RTVSPropertyOp5
 70
     1
102
RTVSPropertyOp6
 70
     1
102
RTVSPropertyOp7
 70
     1
102
RTVSPropertyOp8
 70
     1
102
RTVSPropertyOp9
 70
     1
102
RTVSPropertyOp10
 70
     1
102
RTVSPropertyOp11
 70
     1
102
RTVSPropertyOp12
 70
     1
102
RTVSPropertyOp13
 70
     1
102
RTVSPropertyOp14
 70
     1
102
RTVSPropertyOp15
 70
     1
102
RTVSPropertyOp16
 70
     1
102
RTVSPropertyOp17
 70
     1
102
RTVSPropertyOp18
 70
     1
102
RTVSPropertyOp19
 70
     1
102
RTVSPropertyOp20
 70
     1
102
RTVSPropertyOp21
 70
     1
102
RTVSPropertyOp22
 70
     1
102
RTVSPropertyOp23
 70
     1
102
RTVSPropertyOp24
 70
     1
102
RTVSPropertyOp25
 70
     1
102
RTVSPropertyOp26
 70
     1
102
RTVSPropertyOp27
 70
     1
  0
XRECORD
  5
19C
102
{ACAD_REACTORS
330
19B
102
}
330
19B
100
AcDbXrecord
280
     1
102
RTVSPropertyOp0
 70
     1
102
RTVSPropertyOp1
 70
     1
102
RTVSPropertyOp2
 70
     1
102
RTVSPropertyOp3
 70
     1
102
RTVSPropertyOp4
 70
     1
102
RTVSPropertyOp5
 70
     1
102
RTVSPropertyOp6
 70
     1
102
RTVSPropertyOp7
 70
     1
102
RTVSPropertyOp8
 70
     1
102
RTVSPropertyOp9
 70
     1
102
RTVSPropertyOp10
 70
     1
102
RTVSPropertyOp11
 70
     1
102
RTVSPropertyOp12
 70
     1
102
RTVSPropertyOp13
 70
     1
102
RTVSPropertyOp14
 70
     1
102
RTVSPropertyOp15
 70
     1
102
RTVSPropertyOp16
 70
     1
102
RTVSPropertyOp17
 70
     1
102
RTVSPropertyOp18
 70
     1
102
RTVSPropertyOp19
 70
     1
102
RTVSPropertyOp20
 70
     1
102
RTVSPropertyOp21
 70
     1
102
RTVSPropertyOp22
 70
     1
102
RTVSPropertyOp23
 70
     1
102
RTVSPropertyOp24
 70
     1
102
RTVSPropertyOp25
 70
     1
102
RTVSPropertyOp26
 70
     1
102
RTVSPropertyOp27
 70
     1
  0
XRECORD
  5
1A4
102
{ACAD_REACTORS
330
1A3
102
}
330
1A3
100
AcDbXrecord
280
     1
102
RTVSPropertyOp0
 70
     1
102
RTVSPropertyOp1
 70
     1
102
RTVSPropertyOp2
 70
     1
102
RTVSPropertyOp3
 70
     1
102
RTVSPropertyOp4
 70
     1
102
RTVSPropertyOp5
 70
     1
102
RTVSPropertyOp6
 70
     1
102
RTVSPropertyOp7
 70
     1
102
RTVSPropertyOp8
 70
     1
102
RTVSPropertyOp9
 70
     1
102
RTVSPropertyOp10
 70
     1
102
RTVSPropertyOp11
 70
     1
102
RTVSPropertyOp12
 70
     1
102
RTVSPropertyOp13
 70
     1
102
RTVSPropertyOp14
 70
     1
102
RTVSPropertyOp15
 70
     1
102
RTVSPropertyOp16
 70
     1
102
RTVSPropertyOp17
 70
     1
102
RTVSPropertyOp18
 70
     1
102
RTVSPropertyOp19
 70
     1
102
RTVSPropertyOp20
 70
     1
102
RTVSPropertyOp21
 70
     1
102
RTVSPropertyOp22
 70
     1
102
RTVSPropertyOp23
 70
     1
102
RTVSPropertyOp24
 70
     1
102
RTVSPropertyOp25
 70
     1
102
RTVSPropertyOp26
 70
     1
102
RTVSPropertyOp27
 70
     1
  0
XRECORD
  5
198
102
{ACAD_REACTORS
330
197
102
}
330
197
100
AcDbXrecord
280
     1
102
RTVSPropertyOp0
 70
     1
102
RTVSPropertyOp1
 70
     1
102
RTVSPropertyOp2
 70
     1
102
RTVSPropertyOp3
 70
     1
102
RTVSPropertyOp4
 70
     1
102
RTVSPropertyOp5
 70
     1
102
RTVSPropertyOp6
 70
     1
102
RTVSPropertyOp7
 70
     1
102
RTVSPropertyOp8
 70
     1
102
RTVSPropertyOp9
 70
     1
102
RTVSPropertyOp10
 70
     1
102
RTVSPropertyOp11
 70
     1
102
RTVSPropertyOp12
 70
     1
102
RTVSPropertyOp13
 70
     1
102
RTVSPropertyOp14
 70
     1
102
RTVSPropertyOp15
 70
     1
102
RTVSPropertyOp16
 70
     1
102
RTVSPropertyOp17
 70
     1
102
RTVSPropertyOp18
 70
     1
102
RTVSPropertyOp19
 70
     1
102
RTVSPropertyOp20
 70
     1
102
RTVSPropertyOp21
 70
     1
102
RTVSPropertyOp22
 70
     1
102
RTVSPropertyOp23
 70
     1
102
RTVSPropertyOp24
 70
     1
102
RTVSPropertyOp25
 70
     1
102
RTVSPropertyOp26
 70
     1
102
RTVSPropertyOp27
 70
     1
  0
XRECORD
  5
19A
102
{ACAD_REACTORS
330
199
102
}
330
199
100
AcDbXrecord
280
     1
102
RTVSPropertyOp0
 70
     1
102
RTVSPropertyOp1
 70
     1
102
RTVSPropertyOp2
 70
     1
102
RTVSPropertyOp3
 70
     1
102
RTVSPropertyOp4
 70
     1
102
RTVSPropertyOp5
 70
     1
102
RTVSPropertyOp6
 70
     1
102
RTVSPropertyOp7
 70
     1
102
RTVSPropertyOp8
 70
     1
102
RTVSPropertyOp9
 70
     1
102
RTVSPropertyOp10
 70
     1
102
RTVSPropertyOp11
 70
     1
102
RTVSPropertyOp12
 70
     1
102
RTVSPropertyOp13
 70
     1
102
RTVSPropertyOp14
 70
     1
102
RTVSPropertyOp15
 70
     1
102
RTVSPropertyOp16
 70
     1
102
RTVSPropertyOp17
 70
     1
102
RTVSPropertyOp18
 70
     1
102
RTVSPropertyOp19
 70
     1
102
RTVSPropertyOp20
 70
     1
102
RTVSPropertyOp21
 70
     1
102
RTVSPropertyOp22
 70
     1
102
RTVSPropertyOp23
 70
     1
102
RTVSPropertyOp24
 70
     1
102
RTVSPropertyOp25
 70
     1
102
RTVSPropertyOp26
 70
     1
102
RTVSPropertyOp27
 70
     1
  0
XRECORD
  5
1A2
102
{ACAD_REACTORS
330
1A1
102
}
330
1A1
100
AcDbXrecord
280
     1
102
RTVSPropertyOp0
 70
     1
102
RTVSPropertyOp1
 70
     1
102
RTVSPropertyOp2
 70
     1
102
RTVSPropertyOp3
 70
     1
102
RTVSPropertyOp4
 70
     1
102
RTVSPropertyOp5
 70
     1
102
RTVSPropertyOp6
 70
     1
102
RTVSPropertyOp7
 70
     1
102
RTVSPropertyOp8
 70
     1
102
RTVSPropertyOp9
 70
     1
102
RTVSPropertyOp10
 70
     1
102
RTVSPropertyOp11
 70
     1
102
RTVSPropertyOp12
 70
     1
102
RTVSPropertyOp13
 70
     1
102
RTVSPropertyOp14
 70
     1
102
RTVSPropertyOp15
 70
     1
102
RTVSPropertyOp16
 70
     1
102
RTVSPropertyOp17
 70
     1
102
RTVSPropertyOp18
 70
     1
102
RTVSPropertyOp19
 70
     1
102
RTVSPropertyOp20
 70
     1
102
RTVSPropertyOp21
 70
     1
102
RTVSPropertyOp22
 70
     1
102
RTVSPropertyOp23
 70
     1
102
RTVSPropertyOp24
 70
     1
102
RTVSPropertyOp25
 70
     1
102
RTVSPropertyOp26
 70
     1
102
RTVSPropertyOp27
 70
     1
  0
XRECORD
  5
186
102
{ACAD_REACTORS
330
185
102
}
330
185
100
AcDbXrecord
280
     1
102
RTVSPropertyOp0
 70
     1
102
RTVSPropertyOp1
 70
     1
102
RTVSPropertyOp2
 70
     1
102
RTVSPropertyOp3
 70
     1
102
RTVSPropertyOp4
 70
     1
102
RTVSPropertyOp5
 70
     1
102
RTVSPropertyOp6
 70
     1
102
RTVSPropertyOp7
 70
     1
102
RTVSPropertyOp8
 70
     1
102
RTVSPropertyOp9
 70
     1
102
RTVSPropertyOp10
 70
     1
102
RTVSPropertyOp11
 70
     1
102
RTVSPropertyOp12
 70
     1
102
RTVSPropertyOp13
 70
     1
102
RTVSPropertyOp14
 70
     1
102
RTVSPropertyOp15
 70
     1
102
RTVSPropertyOp16
 70
     1
102
RTVSPropertyOp17
 70
     1
102
RTVSPropertyOp18
 70
     1
102
RTVSPropertyOp19
 70
     1
102
RTVSPropertyOp20
 70
     1
102
RTVSPropertyOp21
 70
     1
102
RTVSPropertyOp22
 70
     1
102
RTVSPropertyOp23
 70
     1
102
RTVSPropertyOp24
 70
     1
102
RTVSPropertyOp25
 70
     1
102
RTVSPropertyOp26
 70
     1
102
RTVSPropertyOp27
 70
     1
  0
XRECORD
  5
188
102
{ACAD_REACTORS
330
187
102
}
330
187
100
AcDbXrecord
280
     1
102
RTVSPropertyOp0
 70
     1
102
RTVSPropertyOp1
 70
     1
102
RTVSPropertyOp2
 70
     1
102
RTVSPropertyOp3
 70
     1
102
RTVSPropertyOp4
 70
     1
102
RTVSPropertyOp5
 70
     1
102
RTVSPropertyOp6
 70
     1
102
RTVSPropertyOp7
 70
     1
102
RTVSPropertyOp8
 70
     1
102
RTVSPropertyOp9
 70
     1
102
RTVSPropertyOp10
 70
     1
102
RTVSPropertyOp11
 70
     1
102
RTVSPropertyOp12
 70
     1
102
RTVSPropertyOp13
 70
     1
102
RTVSPropertyOp14
 70
     1
102
RTVSPropertyOp15
 70
     1
102
RTVSPropertyOp16
 70
     1
102
RTVSPropertyOp17
 70
     1
102
RTVSPropertyOp18
 70
     1
102
RTVSPropertyOp19
 70
     1
102
RTVSPropertyOp20
 70
     1
102
RTVSPropertyOp21
 70
     1
102
RTVSPropertyOp22
 70
     1
102
RTVSPropertyOp23
 70
     1
102
RTVSPropertyOp24
 70
     1
102
RTVSPropertyOp25
 70
     1
102
RTVSPropertyOp26
 70
     1
102
RTVSPropertyOp27
 70
     1
  0
XRECORD
  5
18A
102
{ACAD_REACTORS
330
189
102
}
330
189
100
AcDbXrecord
280
     1
102
RTVSPropertyOp0
 70
     1
102
RTVSPropertyOp1
 70
     1
102
RTVSPropertyOp2
 70
     1
102
RTVSPropertyOp3
 70
     1
102
RTVSPropertyOp4
 70
     1
102
RTVSPropertyOp5
 70
     1
102
RTVSPropertyOp6
 70
     1
102
RTVSPropertyOp7
 70
     1
102
RTVSPropertyOp8
 70
     1
102
RTVSPropertyOp9
 70
     1
102
RTVSPropertyOp10
 70
     1
102
RTVSPropertyOp11
 70
     1
102
RTVSPropertyOp12
 70
     1
102
RTVSPropertyOp13
 70
     1
102
RTVSPropertyOp14
 70
     1
102
RTVSPropertyOp15
 70
     1
102
RTVSPropertyOp16
 70
     1
102
RTVSPropertyOp17
 70
     1
102
RTVSPropertyOp18
 70
     1
102
RTVSPropertyOp19
 70
     1
102
RTVSPropertyOp20
 70
     1
102
RTVSPropertyOp21
 70
     1
102
RTVSPropertyOp22
 70
     1
102
RTVSPropertyOp23
 70
     1
102
RTVSPropertyOp24
 70
     1
102
RTVSPropertyOp25
 70
     1
102
RTVSPropertyOp26
 70
     1
102
RTVSPropertyOp27
 70
     1
  0
XRECORD
  5
18C
102
{ACAD_REACTORS
330
18B
102
}
330
18B
100
AcDbXrecord
280
     1
102
RTVSPropertyOp0
 70
     1
102
RTVSPropertyOp1
 70
     1
102
RTVSPropertyOp2
 70
     1
102
RTVSPropertyOp3
 70
     1
102
RTVSPropertyOp4
 70
     1
102
RTVSPropertyOp5
 70
     1
102
RTVSPropertyOp6
 70
     1
102
RTVSPropertyOp7
 70
     1
102
RTVSPropertyOp8
 70
     1
102
RTVSPropertyOp9
 70
     1
102
RTVSPropertyOp10
 70
     1
102
RTVSPropertyOp11
 70
     1
102
RTVSPropertyOp12
 70
     1
102
RTVSPropertyOp13
 70
     1
102
RTVSPropertyOp14
 70
     1
102
RTVSPropertyOp15
 70
     1
102
RTVSPropertyOp16
 70
     1
102
RTVSPropertyOp17
 70
     1
102
RTVSPropertyOp18
 70
     1
102
RTVSPropertyOp19
 70
     1
102
RTVSPropertyOp20
 70
     1
102
RTVSPropertyOp21
 70
     1
102
RTVSPropertyOp22
 70
     1
102
RTVSPropertyOp23
 70
     1
102
RTVSPropertyOp24
 70
     1
102
RTVSPropertyOp25
 70
     1
102
RTVSPropertyOp26
 70
     1
102
RTVSPropertyOp27
 70
     1
  0
XRECORD
  5
1A0
102
{ACAD_REACTORS
330
19F
102
}
330
19F
100
AcDbXrecord
280
     1
102
RTVSPropertyOp0
 70
     1
102
RTVSPropertyOp1
 70
     1
102
RTVSPropertyOp2
 70
     1
102
RTVSPropertyOp3
 70
     1
102
RTVSPropertyOp4
 70
     1
102
RTVSPropertyOp5
 70
     1
102
RTVSPropertyOp6
 70
     1
102
RTVSPropertyOp7
 70
     1
102
RTVSPropertyOp8
 70
     1
102
RTVSPropertyOp9
 70
     1
102
RTVSPropertyOp10
 70
     1
102
RTVSPropertyOp11
 70
     1
102
RTVSPropertyOp12
 70
     1
102
RTVSPropertyOp13
 70
     1
102
RTVSPropertyOp14
 70
     1
102
RTVSPropertyOp15
 70
     1
102
RTVSPropertyOp16
 70
     1
102
RTVSPropertyOp17
 70
     1
102
RTVSPropertyOp18
 70
     1
102
RTVSPropertyOp19
 70
     1
102
RTVSPropertyOp20
 70
     1
102
RTVSPropertyOp21
 70
     1
102
RTVSPropertyOp22
 70
     1
102
RTVSPropertyOp23
 70
     1
102
RTVSPropertyOp24
 70
     1
102
RTVSPropertyOp25
 70
     1
102
RTVSPropertyOp26
 70
     1
102
RTVSPropertyOp27
 70
     1
  0
XRECORD
  5
196
102
{ACAD_REACTORS
330
195
102
}
330
195
100
AcDbXrecord
280
     1
102
RTVSPropertyOp0
 70
     1
102
RTVSPropertyOp1
 70
     1
102
RTVSPropertyOp2
 70
     1
102
RTVSPropertyOp3
 70
     1
102
RTVSPropertyOp4
 70
     1
102
RTVSPropertyOp5
 70
     1
102
RTVSPropertyOp6
 70
     1
102
RTVSPropertyOp7
 70
     1
102
RTVSPropertyOp8
 70
     1
102
RTVSPropertyOp9
 70
     1
102
RTVSPropertyOp10
 70
     1
102
RTVSPropertyOp11
 70
     1
102
RTVSPropertyOp12
 70
     1
102
RTVSPropertyOp13
 70
     1
102
RTVSPropertyOp14
 70
     1
102
RTVSPropertyOp15
 70
     1
102
RTVSPropertyOp16
 70
     1
102
RTVSPropertyOp17
 70
     1
102
RTVSPropertyOp18
 70
     1
102
RTVSPropertyOp19
 70
     1
102
RTVSPropertyOp20
 70
     1
102
RTVSPropertyOp21
 70
     1
102
RTVSPropertyOp22
 70
     1
102
RTVSPropertyOp23
 70
     1
102
RTVSPropertyOp24
 70
     1
102
RTVSPropertyOp25
 70
     1
102
RTVSPropertyOp26
 70
     1
102
RTVSPropertyOp27
 70
     1
  0
XRECORD
  5
19E
102
{ACAD_REACTORS
330
19D
102
}
330
19D
100
AcDbXrecord
280
     1
102
RTVSPropertyOp0
 70
     1
102
RTVSPropertyOp1
 70
     1
102
RTVSPropertyOp2
 70
     1
102
RTVSPropertyOp3
 70
     1
102
RTVSPropertyOp4
 70
     1
102
RTVSPropertyOp5
 70
     1
102
RTVSPropertyOp6
 70
     1
102
RTVSPropertyOp7
 70
     1
102
RTVSPropertyOp8
 70
     1
102
RTVSPropertyOp9
 70
     1
102
RTVSPropertyOp10
 70
     1
102
RTVSPropertyOp11
 70
     1
102
RTVSPropertyOp12
 70
     1
102
RTVSPropertyOp13
 70
     1
102
RTVSPropertyOp14
 70
     1
102
RTVSPropertyOp15
 70
     1
102
RTVSPropertyOp16
 70
     1
102
RTVSPropertyOp17
 70
     1
102
RTVSPropertyOp18
 70
     1
102
RTVSPropertyOp19
 70
     1
102
RTVSPropertyOp20
 70
     1
102
RTVSPropertyOp21
 70
     1
102
RTVSPropertyOp22
 70
     1
102
RTVSPropertyOp23
 70
     1
102
RTVSPropertyOp24
 70
     1
102
RTVSPropertyOp25
 70
     1
102
RTVSPropertyOp26
 70
     1
102
RTVSPropertyOp27
 70
     1
  0
ENDSEC
  0
SECTION
  2
THUMBNAILIMAGE
 90
    16364
310
28000000B40000005500000001000800000000000000000000000000000000000000000000000000FFFFFF00FF000000FFFF000000FF000000FFFF000000FF00FF00FF000000000080808000C0C0C000FF000000FF7F7F00A5000000A55252007F0000007F3F3F004C0000004C2626002600000026131300FF3F0000FF9F7F
310
00A5290000A56752007F1F00007F4F3F004C1300004C2F26002609000026171300FF7F0000FFBF7F00A5520000A57C52007F3F00007F5F3F004C2600004C39260026130000261C1300FFBF0000FFDF7F00A57C0000A59152007F5F00007F6F3F004C3900004C422600261C000026211300FFFF0000FFFF7F00A5A50000A5A5
310
52007F7F00007F7F3F004C4C00004C4C26002626000026261300BFFF0000DFFF7F007CA5000091A552005F7F00006F7F3F00394C0000424C26001C260000212613007FFF0000BFFF7F0052A500007CA552003F7F00005F7F3F00264C0000394C2600132600001C2613003FFF00009FFF7F0029A5000067A552001F7F00004F
310
7F3F00134C00002F4C2600092600001726130000FF00007FFF7F0000A5000052A55200007F00003F7F3F00004C0000264C2600002600001326130000FF3F007FFF9F0000A5290052A56700007F1F003F7F4F00004C1300264C2F00002609001326170000FF7F007FFFBF0000A5520052A57C00007F3F003F7F5F00004C2600
310
264C39000026130013261C0000FFBF007FFFDF0000A57C0052A59100007F5F003F7F6F00004C3900264C420000261C001326210000FFFF007FFFFF0000A5A50052A5A500007F7F003F7F7F00004C4C00264C4C00002626001326260000BFFF007FDFFF00007CA5005291A500005F7F003F6F7F0000394C0026424C00001C26
310
0013212600007FFF007FBFFF000052A500527CA500003F7F003F5F7F0000264C0026394C0000132600131C2600003FFF007F9FFF000029A5005267A500001F7F003F4F7F0000134C00262F4C0000092600131726000000FF007F7FFF000000A5005252A50000007F003F3F7F0000004C0026264C0000002600131326003F00
310
FF009F7FFF002900A5006752A5001F007F004F3F7F0013004C002F264C0009002600171326007F00FF00BF7FFF005200A5007C52A5003F007F005F3F7F0026004C0039264C00130026001C132600BF00FF00DF7FFF007C00A5009152A5005F007F006F3F7F0039004C0042264C001C00260021132600FF00FF00FF7FFF00A5
310
00A500A552A5007F007F007F3F7F004C004C004C264C002600260026132600FF00BF00FF7FDF00A5007C00A55291007F005F007F3F6F004C0039004C26420026001C0026132100FF007F00FF7FBF00A5005200A5527C007F003F007F3F5F004C0026004C2639002600130026131C00FF003F00FF7F9F00A5002900A5526700
310
7F001F007F3F4F004C0013004C262F002600090026131700000000002D2D2D005B5B5B0089898900B7B7B700B3B3B30000000000000000000000000000000000000000000000000000000000000000000000000000000000000000000000000000000000000000000000000000000000000000000000000000000000000000
310
00000000000000000000000000000000000000000000000000000000000000000000000000000000000000000000000000000000000000000000000000000000000000000000000000000000000000000000000000000000000000000000000000000000000000000000000000000000000000000000000000000000000000
310
00000000000000000000000000000000000000000000000000000000000000000000000000000006060606060606060606060606060606060606060606060606060606060606060606060606060606060606060606060606060600000000000000000000000000000000000000000000000000000000000000000000000000
310
00000000000000000000000000000000000000000000000000000000000000000000000000000000000000000000000000000000000000000000000000000000000000000000000000000000000000000000000000000000969696969696969696969696969696969696969696969696969696969696969696969696969696
310
96969696969696969696969696969696969696960000000000000000000000000000000000000000000000000000000000000000000000000000000000000000000000000000000000000000000000000000000000000000000000000000000000000000000000000000000000000000000000000000000000000000000000
310
00000000000000000000000000009606060606040404040404040404040404040404040404040404040406060606060606060606060606060606040404040404040404040606060696000000000000000000000000000000000000000000000000000000000000000000000000000000000000000000000000000000000000
310
00000000000000000000000000000000000000000000000000000000000000000000000000000000000000000000000000000000000000000000000000000000000000960606060604040404040404040404040404040404040404040404040606060606060606060606060606060604040404040404040404060606069600
310
00000000000000000000000000000000000000000000000000000000000000000000000000000000000000000000000000000000000000000000000000000000000000000000000000000000000000000000000000000000000000000000000000000000000000000000000000000000000000000000000096060606060606
310
06060606060606060606060606060606060606060606060606060606060606060606060606060606060606060606060606060696000000000000000000000000000000000000000000000000000000000000000000000000000000000000000000000000000000000000000000000000000000000000000000000000000000
310
00000000000000000000000000000000000000000000000000000000000000000000000000000000000000000000960606060606060606060606060606060606060606060606060606060606060606060606060606060606060606060606060606060606060606069600000000000000000000000000000000000000000000
310
00000000000000000000000000000000000000000000000000000000000000000000000000000000000000000000000000000000000000000000000000000000000000000000000000000000000000000000000000000000000000000000000000000096060606060606060606060606060606060606060604040404040404
310
04060606060606060606060606060606060606060606060606060606060696000000000000000000000000000000000000000000000000000000000000000000000000000000000000000000000000000000000000000000000000000000000000000000000000000000000000000000000000000000000000000000000000
310
00000000000000000000000000000000000000000000000000960606060606060606060606060606060606060606040404040404040404040404060606060606060606060606060606060606060606060606069600000000000000000000000000000000000000000000000000000000000000000000000000000000000000
310
00000000000000000000000000000000000000000000000000000000000000000000000000000000000000000000000000000000000000000000000000000000000000000000000000000000000096060606060606060606060606060606060606060604040404040404040404040404060606060606060606060606060606
310
06060606060606060696000000000000000000000000000000000000000000000000000000000000000000000000000000000000000000000000000000000000000000000000000000000000000000000000000000000000000000000000000000000000000000000000000000000000000000000000000000000000000000
310
00000000960606060606060606000000000000000000000000040404040404040404040404040404040400000000000000000000000006060606060606069600000000000000000000000000000000000000000000000000000000000000000000000000000000000000000000000000000000000000000000000000000000
310
00000000000000000000000000000000000000000000000000000000000000000000000000000000000000000000000000000000000000000096060606060606060600000000000000000000000004040404040404040404040404040004040000000000000000000000000606060606060606960000000000000000000000
310
00000000000000000000000000000000000000000000000000000000000000000000000000000000000000000000000000000000000000000000000000000000000000000000000000000000000000000000000000000000000000000000000000000000000000000000000000009606060606060606060000000000000000
310
00000000040404040404040404040400000000000000000000000000000000000006060606060606069600000000000000000000000000000000000000000000000000000000000000000000000000000000000000000000000000000000000000000000000000000000000000000000000000000000000000000000000000
310
00000000000000000000000000000000000000000000000000000000000000000000000096060606060606060600030303030303030303030303000000000003030303000000000000030303030303030303030303000606060606060606960000000000000000000000000000000000000000000000000000000000000000
310
00000000000000000000000000000000000000000000000000000000000000000000000000000000000000000000000000000000000000000000000000000000000000000000000000000000000000000000000000000000009606060606060606060003030303030303030303030300000000000303030300000000000003
310
03030303030303030303030006060606060606069600000000000000000000000000000000000000000000000000000000000000000000000000000000000000000000000000000000000000000000000000000000000000000000000000000000000000000000000000000000000000000000000000000000000000000000
310
00000000000000000000000000000096060606060606060303030303030303030303030303030300030303030303030300000003030303030303030303030303030606060606060606960000000000000000000000000000000000000000000000000000000000000000000000000000000000000000000000000000000000
310
00000000000000000000000000000000000000000000000000000000000000000000000000000000000000000000000000000000000000000000000000000000000000009606060606060606030303030303030303030303030303030003030303030303030300000303030303030303030303030303030606060606060696
310
00000000000000000000000000000000000000000000000000000000000000000000000000000000000000000000000000000000000000000000000000000000000000000000000000000000000000000000000000000000000000000000000000000000000000000000000000000000000000000000000000960606060606
310
06060303030300030303030300000303030300030303030303030303000003030303000003030303030303030303060606060606960000000000000000000000000000000000000000000000000000000000000000000000000000000000000000000000000000000000000000000000000000000000000000000000000000
310
00000000000000000000000000000000000000000000000000000000000000000000000000000000000000000000009606060606060604030303030000000303030303030303030003030303030303030300000303030300000303030303030303030306060606060696000000000000000000000000000000000000000000
310
00000000000000000000000000000000000000000000000000000000000000000000000000000000000000000000000000000000000000000000000000000000000000000000000000000000000000000000000000000000000000000000000000000000960606060606040403030303040404030303030303030303000303
310
03030303030303000003030303000003030303000003030303060606060606960000000000000000000000000000000000000000000000000000000000000000000000000000000000000000000000000000000000000000000000000000000000000000000000000000000000000000000000000000000000000000000000
310
00000000000000000000000000000000000000000000000000009606060606060406030303030003030303030303030303030003030303030303030300000303030300000303030300000303030306060606060696000000000000000000000000000000000000000000000000000000000000000000000000000000000000
310
00000000000000000000000000000000000000000000000000000000000000000000000000000000000000000000000000000000000000000000000000000000000000000000000000000000000000960606060606060403030303000303030303000003030303000303030303030303030000030303030000030303030303
310
03030303060606060606960000000000000000000000000000000000000000000000000000000000000000000000000000000000000000000000000000000000000000000000000000000000000000000000000000000000000000000000000000000000000000000000000000000000000000000000000000000000000000
310
00000000009606060606060606030303030303030303030303030303030003030303030303030304030303030300000303030303030303030306060606060696000000000000000000000000000000000000000000000000000000000000000000000000000000000000000000000000000000000000000000000000000000
310
00000000000000000000000000000000000000000000000000000000000000000000000000000000000000000000000000000000000000000000960606060606060603030303030303030303030303030303000303030303030303030403030303030000030303030303030303030606060606069600000000000000000000
310
00000000000000000000000000000000000000000000000000000000000000000000000000000000000000000000000000000000000000000000000000000000000000000000000000000000000000000000000000000000000000000000000000000000000000000000000000000096060606060606060303030303030303
310
03030303030303030303030303030303030304000303030300000303030303030303030306060606060696000000000000000000000000000000000000000000000000000000000000000000000000000000000000000000000000000000000000000000000000000000000000000000000000000000000000000000000000
310
00000000000000000000000000000000000000000000000000000000000000000000000000960606060606060603030303030303030303030303030303030303030303030303030000030303030000030303030303030303030606060606069600000000000000000000000000000000000000000000000000000000000000
310
00000000000000000000000000000000000000000000000000000000000000000000000000000000000000000000000000000000000000000000000000000000000000000000000000000000000000000000000000000000000096060606060606060303030303030303030303030303030303030303030303030303000003
310
03030300000303030303030303030306060606060696000000000000000000000000000000000000000000000000000000000000000000000000000000000000000000000000000000000000000000000000000000000000000000000000000000000000000000000000000000000000000000000000000000000000000000
310
00000000000000000000000000000000960606060606060603030303030303030303030303030303030303030303030303030000030303030000030303030303030303030606060606069600000000000000000000000000000000000000000000000000000000000000000000000000000000000000000000000000000000
310
00000000000000000000000000000000000000000000000000000000000000000000000000000000000000000000000000000000000000000000000000000000000000000096060606060606060303030303030303030303030303030303030303030303030303000003030303000003030707030707030303060606060606
310
96000000000000000000000000000000000000000000000000000000000000000000000000000000000000000000000000000000000000000000000000000000000000000000000000000000000000000000000000000000000000000000000000000000000000000000000000000000000000000000000000009606060606
310
06060603030303030303030707070703030303030303030303030303030000030303030000030307070307070303030606060606069600000000000000000000000000000000000000000000000000000000000000000000000000000000000000000000000000000000000000000000000000000000000000000000000000
310
00000000000000000000000000000000000000000000000000000000000000000000000000000000000000000000000096060606060606060303030303030303070707070303030303030303030303030303000003030303000003030303030303030303060606060606960000000000000000000000000000000000000000
310
00000000000000000000000000000000000000000000000000000000000000000000000000000000000000000000000000000000000000000000000000000000000000000000000000000000000000000000000000000000000000000000000000000000009606060606060606030303030303030307070707030303030303
310
03030303030303030000030303030000030303030303030303030406060606069600000000000000000000000000000000000000000000000000000000000000000000000000000000000000000000000000000000000000000000000000000000000000000000000000000000000000000000000000000000000000000000
310
00000000000000000000000000000000000000000000000000000096060606060606060303030303030303070707070303030303030303030303030303000003030303000003030303030303030303040606060606960000000000000000000000000000000000000000000000000000000000000000000000000000000000
310
00000000000000000000000000000000000000000000000000000000000000000000000000000000000000000000000000000000000000000000000000000000000000000000000000000000000000009606060606060606030303030303030303030303030303030303030303030303030304000303030303030303030303
310
03030303030406060606069600000000000000000000000000000000000000000000000000000000000000000000000000000000000000000000000000000000000000000000000000000000000000000000000000000000000000000000000000000000000000000000000000000000000000000000000000000000000000
310
00000000000096060606060606060303030303030303030303030303030303030303030303030303040403030303030303030303030303030306060606060606960000000000000000000000000000000000000000000000000000000000000000000000000000000000000000000000000000000000000000000000000000
310
00000000000000000000000000000000000000000000000000000000000000000000000000000000000000000000000000000000000000000000009606060606060606060303030303030303030303030303030003030303030303030404000303030303030303030303030303060606060606060696000000000000000000
310
00000000000000000000000000000000000000000000000000000000000000000000000000000000000000000000000000000000000000000000000000000000000000000000000000000000000000000000000000000000000000000000000000000000000000000000000000000000960606060606060606000303030303
310
03030303030303000000000303030303030000000000000303030303030303030303000606060606060606960000000000000000000000000000000000000000000000000000000000000000000000000000000000000000000000000000000000000000000000000000000000000000000000000000000000000000000000
310
00000000000000000000000000000000000000000000000000000000000000000000000000009606060606060606060000000000000000000000000000000000000000000000000000000000000000000000000000000000060606060606060696000000000000000000000000000000000000000000000000000000000000
310
00000000000000000000000000000000000000000000000000000000000000000000000000000000000000000000000000000000000000000000000000000000000000000000000000000000000000000000000000000000000000960606060606060604040404040404040400000000000000000000000000000000000000
310
00000000000000000000000000000606060606060606960000000000000000000000000000000000000000000000000000000000000000000000000000000000000000000000000000000000000000000000000000000000000000000000000000000000000000000000000000000000000000000000000000000000000000
310
00000000000000000000000000000000009606060606060606040404040404040404000000000000000000000000000000000000000000000000000000000000000000060606060606060696000000000000000000000000000000000000000000000000000000000000000000000000000000000000000000000000000000
310
00000000000000000000000000000000000000000000000000000000000000000000000000000000000000000000000000000000000000000000000000000000000000000000960606060606060606000000000000000000000000000000000000000000000000000000000000000000000000000000000006060606060606
310
06960000000000000000000000000000000000000000000000000000000000000000000000000000000000000000000000000000000000000000000000000000000000000000000000000000000000000000000000000000000000000000000000000000000000000000000000000000000000000000000000000096060606
310
06060606060000000000000000000000000000000000000000000000000000000000000000000000000000000000060606060606060696000000000000000000000000000000000000000000000000000000000000000000000000000000000000000000000000000000000000000000000000000000000000000000000000
310
00000000000000000000000000000000000000000000000000000000000000000000000000000000000000000000000000960606060606060606000000000000000000000000000000000000000000000000000000000000000000000000000000000006060606060606069600000000000000000000000000000000000000
310
00000000000000000000000000000000000000000000000000000000000000000000000000000000000000000000000000000000000000000000000000000000000000000000000000000000000000000000000000000000000000000000000000000000000096060606060606060600000000000000000000000000000000
310
00000000000000000000000000000000000000000000000000060606060606060696000000000000000000000000000000000000000000000000000000000000000000000000000000000000000000000000000000000000000000000000000000000000000000000000000000000000000000000000000000000000000000
310
00000000000000000000000000000000000000000000000000000000960606060606060606000000000000000000000004040000040400000000000404040400000000000000000000000000000006060606060606069600000000000000000000000000000000000000000000000000000000000000000000000000000000
310
00000000000000000000000000000000000000000000000000000000000000000000000000000000000000000000000000000000000000000000000000000000000000000000000000000000000000000096060606060606060600000000000000000000000404000004040000000000040404040000000000000000000000
310
00000000060606060606060696000000000000000000000000000000000000000000000000000000000000000000000000000000000000000000000000000000000000000000000000000000000000000000000000000000000000000000000000000000000000000000000000000000000000000000000000000000000000
310
00000000000000960606060606060606000000000000000000000004040000040400000000000404040404040404040404040404000000000006060606060606069600000000000000000000000000000000000000000000000000000000000000000000000000000000000000000000000000000000000000000000000000
310
00000000000000000000000000000000000000000000000000000000000000000000000000000000000000000000000000000000000000000000000096060606060606060600000000000000000000000404040404040000000000040404040404040404040404040404040404040404060606060606960000000000000000
310
00000000000000000000000000000000000000000000000000000000000000000000000000000000000000000000000000000000000000000000000000000000000000000000000000000000000000000000000000000000000000000000000000000000000000000000000000000000009606060606060606060000000000
310
00000000000004040404040400000000000404040404040404000404040404040404040404040606060606069600000000000000000000000000000000000000000000000000000000000000000000000000000000000000000000000000000000000000000000000000000000000000000000000000000000000000000000
310
00000000000000000000000000000000000000000000000000000000000000000000000000000096060606060606060600000000000000000000000404040404040000000000040404040404000404040404040400000000000606060606060606960000000000000000000000000000000000000000000000000000000000
310
00000000000000000000000000000000000000000000000000000000000000000000000000000000000000000000000000000000000000000000000000000000000000000000000000000000000000000000000000000000000000009606060606060606060000000000000000000000040404040404000000000004040404
310
04040004040404040404000000000006060606060606069600000000000000000000000000000000000000000000000000000000000000000000000000000000000000000000000000000000000000000000000000000000000000000000000000000000000000000000000000000000000000000000000000000000000000
310
00000000000000000000000000000000000096060606060606060600000000000000000000000404000004040000000000040404040404040404040400000000000000000606060606060606960000000000000000000000000000000000000000000000000000000000000000000000000000000000000000000000000000
310
00000000000000000000000000000000000000000000000000000000000000000000000000000000000000000000000000000000000000000000000000000000000000000000009606060606060606060000000000000000000000040400000404000000000004040404040404040404040000000000000000060606060606
310
06069600000000000000000000000000000000000000000000000000000000000000000000000000000000000000000000000000000000000000000000000000000000000000000000000000000000000000000000000000000000000000000000000000000000000000000000000000000000000000000000000000960606
310
06060606060600000000000000000000000404040404040404000000040404040404040404040404040404000000000606060606060606960000000000000000000000000000000000000000000000000000000000000000000000000000000000000000000000000000000000000000000000000000000000000000000000
310
00000000000000000000000000000000000000000000000000000000000000000000000000000000000000000000000000009606060606060606060000000000000000000000040404040404040404000004040404040404040404040404040400000000060606060606060696000000000000000000000000000000000000
310
00000000000000000000000000000000000000000000000000000000000000000000000000000000000000000000000000000000000000000000000000000000000000000000000000000000000000000000000000000000000000000000000000000000000000960606060606060606000000000000000000000004040404
310
04040000000000040404040404000000000000000000000000000606060606060606960000000000000000000000000000000000000000000000000000000000000000000000000000000000000000000000000000000000000000000000000000000000000000000000000000000000000000000000000000000000000000
310
00000000000000000000000000000000000000000000000000000000009606060606060606060000000000000000000000000404040404000000000004040404040400000000000000000000000000060606060606060696000000000000000000000000000000000000000000000000000000000000000000000000000000
310
00000000000000000000000000000000000000000000000000000000000000000000000000000000000000000000000000000000000000000000000000000000000000000000000000000000000000000000960606060606060606000000000000000000000004040404040404000000000404040404040404040404040404
310
04040000000606060606060606960000000000000000000000000000000000000000000000000000000000000000000000000000000000000000000000000000000000000000000000000000000000000000000000000000000000000000000000000000000000000000000000000000000000000000000000000000000000
310
00000000000000009606060606060606040404000000040404000000040404040404040404000004040404040004040404040404040400000000060606060606060696000000000000000000000000000000000000000000000000000000000000000000000000000000000000000000000000000000000000000000000000
310
00000000000000000000000000000000000000000000000000000000000000000000000000000000000000000000000000000000000000000000000000960606060606060604040400000004040400000004040404040404040400000404040404040404040404040400000000000006060606060606069600000000000000
310
00000000000000000000000000000000000000000000000000000000000000000000000000000000000000000000000000000000000000000000000000000000000000000000000000000000000000000000000000000000000000000000000000000000000000000000000000000000000096060606060606060404000000
310
00040404000000040404040404040404000000000000000004000000000004000000000000060606060606060696000000000000000000000000000000000000000000000000000000000000000000000000000000000000000000000000000000000000000000000000000000000000000000000000000000000000000000
310
00000000000000000000000000000000000000000000000000000000000000000000000000000000960606060606060606000000000000000000000000000000000000000000000000000000000000000000000000000000000006060606060606069600000000000000000000000000000000000000000000000000000000
310
00000000000000000000000000000000000000000000000000000000000000000000000000000000000000000000000000000000000000000000000000000000000000000000000000000000000000000000000000000000000000000096060606060606060600000000000000000000000000000000000000000000000000
310
00000000000000000000000000000000060606060606060696000000000000000000000000000000000000000000000000000000000000000000000000000000000000000000000000000000000000000000000000000000000000000000000000000000000000000000000000000000000000000000000000000000000000
310
00000000000000000000000000000000000000960606060606060606000000000000000000000004000404040004040400000000040404040404040400040404040404000006060606060606069600000000000000000000000000000000000000000000000000000000000000000000000000000000000000000000000000
310
00000000000000000000000000000000000000000000000000000000000000000000000000000000000000000000000000000000000000000000000000000000000000000000000096060606060606060600000000000000000000000404040404040404040000000004040404040404040404040404040400000606060606
310
06060696000000000000000000000000000000000000000000000000000000000000000000000000000000000000000000000000000000000000000000000000000000000000000000000000000000000000000000000000000000000000000000000000000000000000000000000000000000000000000000000000009606
310
06060606060604040400040404040400000004000000040404040400000000000000000000000000000000000000000006060606060606069600000000000000000000000000000000000000000000000000000000000000000000000000000000000000000000000000000000000000000000000000000000000000000000
310
00000000000000000000000000000000000000000000000000000000000000000000000000000000000000000000000000000096060606060606060404040404040404040000000404000004040404040000000000000000000000000000000000000000000606060606060606960000000000000000000000000000000000
310
00000000000000000000000000000000000000000000000000000000000000000000000000000000000000000000000000000000000000000000000000000000000000000000000000000000000000000000000000000000000000000000000000000000000000009606060606060606040000000004040404000000040000
310
00040404000400000000000000000000000000000000000000000006060606060606069600000000000000000000000000000000000000000000000000000000000000000000000000000000000000000000000000000000000000000000000000000000000000000000000000000000000000000000000000000000000000
310
00000000000000000000000000000000000000000000000000000000000096060606060606060600000000000000000000000000000000000000000000000000000000000000000000000000000000000606060606060606960000000000000000000000000000000000000000000000000000000000000000000000000000
310
00000000000000000000000000000000000000000000000000000000000000000000000000000000000000000000000000000000000000000000000000000000000000000000000000000000000000000000009606060606060606060404040400000000000000000000000000000000000000000000000000000000000000
310
00000000000006060606060606069600000000000000000000000000000000000000000000000000000000000000000000000000000000000000000000000000000000000000000000000000000000000000000000000000000000000000000000000000000000000000000000000000000000000000000000000000000000
310
00000000000000000096060606060606060604040404000404040404040404040400040404000000000000000000000000000000000000000000000606060606060606960000000000000000000000000000000000000000000000000000000000000000000000000000000000000000000000000000000000000000000000
310
00000000000000000000000000000000000000000000000000000000000000000000000000000000000000000000000000000000000000000000000000009606060606060606060404040400000404040404000004040404040400000000000000000000000000000000000000000000060606060606060696000000000000
310
00000000000000000000000000000000000000000000000000000000000000000000000000000000000000000000000000000000000000000000000000000000000000000000000000000000000000000000000000000000000000000000000000000000000000000000000000000000000000960606060606060606040404
310
04060404040604060606060606040604040404040404060604040404040606040606040606060606060606060606960000000000000000000000000000000000000000000000000000000000000000000000000000000000000000000000000000000000000000000000000000000000000000000000000000000000000000
310
00000000000000000000000000000000000000000000000000000000000000000000000000000000009606060606060606060404040406040404040404040404040404040404040404040406040404040404040404040404060606060606060606060696000000000000000000000000000000000000000000000000000000
310
00000000000000000000000000000000000000000000000000000000000000000000000000000000000000000000000000000000000000000000000000000000000000000000000000000000000000000000000000000000000000000000960606060606060606040404040604040404040406060404040404040404040404
310
04060404040404040406040404040606060606060606060606960000000000000000000000000000000000000000000000000000000000000000000000000000000000000000000000000000000000000000000000000000000000000000000000000000000000000000000000000000000000000000000000000000000000
310
00000000000000000000000000000000000000009606060606060606060606060606060606060606060606060606060606060606060606060606060606060606060606060606060606060606060696000000000000000000000000000000000000000000000000000000000000000000000000000000000000000000000000
310
00000000000000000000000000000000000000000000000000000000000000000000000000000000000000000000000000000000000000000000000000000000000000000000000000960606060606060606060606060606060606060606060606060606060606060606060606060606060606060606060606060606060606
310
06060606960000000000000000000000000000000000000000000000000000000000000000000000000000000000000000000000000000000000000000000000000000000000000000000000000000000000000000000000000000000000000000000000000000000000000000000000000000000000000000000000000096
310
06060606060606060606060606060606060606060604060604040404040406060606060606060606060606060606060606060606060606060696000000000000000000000000000000000000000000000000000000000000000000000000000000000000000000000000000000000000000000000000000000000000000000
310
00000000000000000000000000000000000000000000000000000000000000000000000000000000000000000000000000000000960606060606060606060606060606060606060606060404040404040404040606060606060606060606060606060606060606060606060606069600000000000000000000000000000000
310
00000000000000000000000000000000000000000000000000000000000000000000000000000000000000000000000000000000000000000000000000000000000000000000000000000000000000000000000000000000000000000000000000000000000000000096000606060606060606060606060606060606060604
310
04040404040404040404060606060606060606060606060606060606060606060606060696000000000000000000000000000000000000000000000000000000000000000000000000000000000000000000000000000000000000000000000000000000000000000000000000000000000000000000000000000000000000
310
00000000000000000000000000000000000000000000000000000000000000960000000606060606060606060606060606060606040404040404040404040406060606060606060606060606060606060606060606060000009600000000000000000000000000000000000000000000000000000000000000000000000000
310
00000000000000000000000000000000000000000000000000000000000000000000000000000000000000000000000000000000000000000000000000000000000000000000000000000000000000000000000096000000000000000000000000000000000000000000040400040404040404040000000000000000000000
310
00000000000000000000000000000096000000000000000000000000000000000000000000000000000000000000000000000000000000000000000000000000000000000000000000000000000000000000000000000000000000000000000000000000000000000000000000000000000000000000000000000000000000
310
00000000000000000000960000000000000000000000000000000000000000000000000000000000000000000000000000000000000000000000000000000000000000009600000000000000000000000000000000000000000000000000000000000000000000000000000000000000000000000000000000000000000000
310
00000000000000000000000000000000000000000000000000000000000000000000000000000000000000000000000000000000000000000000000000000096969696969696969696969696969696969696969696969696969696969696969696969696969696969696969696969696969696969696969696960000000000
310
00000000000000000000000000000000000000000000000000000000000000000000000000000000000000000000000000000000000000000000000000000000000000000000000000000000000000000000000000000000000000000000000000000000000000000000000000000000000000000000000000000000000000
310
000000000000000000000000000000000000000000000000000000000000000000000000000000000000000000000000000000000000000000000000000000000000000000000000000000000000000000000000000000000000000000000000000000000000000000000000
  0
ENDSEC
  0
EOF
